  0
SECTION
  2
HEADER
  9
$ACADVER
  1
AC1015
  9
$ACADMAINTVER
 70
     6
  9
$DWGCODEPAGE
  3
ANSI_1254
  9
$INSBASE
 10
0.0
 20
0.0
 30
0.0
  9
$EXTMIN
 10
0.0
 20
0.0
 30
0.0
  9
$EXTMAX
 10
279.4
 20
215.9
 30
0.0
  9
$LIMMIN
 10
0.0
 20
0.0
  9
$LIMMAX
 10
279.4
 20
215.9
  9
$ORTHOMODE
 70
     0
  9
$REGENMODE
 70
     1
  9
$FILLMODE
 70
     1
  9
$QTEXTMODE
 70
     0
  9
$MIRRTEXT
 70
     1
  9
$LTSCALE
 40
1.0
  9
$ATTMODE
 70
     1
  9
$TEXTSIZE
 40
3.5
  9
$TRACEWID
 40
1.0
  9
$TEXTSTYLE
  7
Standard
  9
$CLAYER
  8
0
  9
$CELTYPE
  6
ByLayer
  9
$CECOLOR
 62
   256
  9
$CELTSCALE
 40
1.0
  9
$DISPSILH
 70
     0
  9
$DIMSCALE
 40
1.0
  9
$DIMASZ
 40
3.5
  9
$DIMEXO
 40
1.0
  9
$DIMDLI
 40
3.75
  9
$DIMRND
 40
0.0
  9
$DIMDLE
 40
0.0
  9
$DIMEXE
 40
1.0
  9
$DIMTP
 40
0.0
  9
$DIMTM
 40
0.0
  9
$DIMTXT
 40
3.5
  9
$DIMCEN
 40
2.5
  9
$DIMTSZ
 40
0.0
  9
$DIMTOL
 70
     0
  9
$DIMLIM
 70
     0
  9
$DIMTIH
 70
     1
  9
$DIMTOH
 70
     1
  9
$DIMSE1
 70
     0
  9
$DIMSE2
 70
     0
  9
$DIMTAD
 70
     1
  9
$DIMZIN
 70
     0
  9
$DIMBLK
  1

  9
$DIMASO
 70
     1
  9
$DIMSHO
 70
     1
  9
$DIMPOST
  1

  9
$DIMAPOST
  1

  9
$DIMALT
 70
     0
  9
$DIMALTD
 70
     3
  9
$DIMALTF
 40
0.0393700787
  9
$DIMLFAC
 40
1.0
  9
$DIMTOFL
 70
     1
  9
$DIMTVP
 40
0.0
  9
$DIMTIX
 70
     0
  9
$DIMSOXD
 70
     0
  9
$DIMSAH
 70
     0
  9
$DIMBLK1
  1

  9
$DIMBLK2
  1

  9
$DIMSTYLE
  2
ISO-25
  9
$DIMCLRD
 70
     0
  9
$DIMCLRE
 70
     0
  9
$DIMCLRT
 70
     0
  9
$DIMTFAC
 40
1.0
  9
$DIMGAP
 40
1.524
  9
$DIMJUST
 70
     0
  9
$DIMSD1
 70
     0
  9
$DIMSD2
 70
     0
  9
$DIMTOLJ
 70
     0
  9
$DIMTZIN
 70
     0
  9
$DIMALTZ
 70
     0
  9
$DIMALTTZ
 70
     0
  9
$DIMUPT
 70
     0
  9
$DIMDEC
 70
     2
  9
$DIMTDEC
 70
     2
  9
$DIMALTU
 70
     2
  9
$DIMALTTD
 70
     3
  9
$DIMTXSTY
  7
Standard
  9
$DIMAUNIT
 70
     0
  9
$DIMADEC
 70
     2
  9
$DIMALTRND
 40
0.0
  9
$DIMAZIN
 70
     0
  9
$DIMDSEP
 70
    44
  9
$DIMATFIT
 70
     3
  9
$DIMFRAC
 70
     0
  9
$DIMLDRBLK
  1

  9
$DIMLUNIT
 70
     2
  9
$DIMLWD
 70
    -2
  9
$DIMLWE
 70
    -2
  9
$DIMTMOVE
 70
     0
  9
$LUNITS
 70
     2
  9
$LUPREC
 70
     2
  9
$SKETCHINC
 40
1.0
  9
$FILLETRAD
 40
10.0
  9
$AUNITS
 70
     0
  9
$AUPREC
 70
     2
  9
$MENU
  1
.
  9
$ELEVATION
 40
0.0
  9
$PELEVATION
 40
0.0
  9
$THICKNESS
 40
0.0
  9
$LIMCHECK
 70
     0
  9
$CHAMFERA
 40
0.0
  9
$CHAMFERB
 40
0.0
  9
$CHAMFERC
 40
0.0
  9
$CHAMFERD
 40
0.0
  9
$SKPOLY
 70
     0
  9
$TDCREATE
 40
2459741.603206783
  9
$TDUCREATE
 40
2459741.478206783
  9
$TDUPDATE
 40
2459741.603206967
  9
$TDUUPDATE
 40
2459741.478206967
  9
$TDINDWG
 40
0.0000000116
  9
$TDUSRTIMER
 40
0.0000000116
  9
$USRTIMER
 70
     1
  9
$ANGBASE
 50
0.0
  9
$ANGDIR
 70
     0
  9
$PDMODE
 70
     0
  9
$PDSIZE
 40
-1.0
  9
$PLINEWID
 40
0.0
  9
$SPLFRAME
 70
     0
  9
$SPLINETYPE
 70
     6
  9
$SPLINESEGS
 70
     8
  9
$HANDSEED
  5
130
  9
$SURFTAB1
 70
     6
  9
$SURFTAB2
 70
     6
  9
$SURFTYPE
 70
     6
  9
$SURFU
 70
     6
  9
$SURFV
 70
     6
  9
$UCSBASE
  2

  9
$UCSNAME
  2

  9
$UCSORG
 10
0.0
 20
0.0
 30
0.0
  9
$UCSXDIR
 10
1.0
 20
0.0
 30
0.0
  9
$UCSYDIR
 10
0.0
 20
1.0
 30
0.0
  9
$UCSORTHOREF
  2

  9
$UCSORTHOVIEW
 70
     0
  9
$UCSORGTOP
 10
0.0
 20
0.0
 30
0.0
  9
$UCSORGBOTTOM
 10
0.0
 20
0.0
 30
0.0
  9
$UCSORGLEFT
 10
0.0
 20
0.0
 30
0.0
  9
$UCSORGRIGHT
 10
0.0
 20
0.0
 30
0.0
  9
$UCSORGFRONT
 10
0.0
 20
0.0
 30
0.0
  9
$UCSORGBACK
 10
0.0
 20
0.0
 30
0.0
  9
$PUCSBASE
  2

  9
$PUCSNAME
  2

  9
$PUCSORG
 10
0.0
 20
0.0
 30
0.0
  9
$PUCSXDIR
 10
1.0
 20
0.0
 30
0.0
  9
$PUCSYDIR
 10
0.0
 20
1.0
 30
0.0
  9
$PUCSORTHOREF
  2

  9
$PUCSORTHOVIEW
 70
     0
  9
$PUCSORGTOP
 10
0.0
 20
0.0
 30
0.0
  9
$PUCSORGBOTTOM
 10
0.0
 20
0.0
 30
0.0
  9
$PUCSORGLEFT
 10
0.0
 20
0.0
 30
0.0
  9
$PUCSORGRIGHT
 10
0.0
 20
0.0
 30
0.0
  9
$PUCSORGFRONT
 10
0.0
 20
0.0
 30
0.0
  9
$PUCSORGBACK
 10
0.0
 20
0.0
 30
0.0
  9
$USERI1
 70
     0
  9
$USERI2
 70
     0
  9
$USERI3
 70
     0
  9
$USERI4
 70
     0
  9
$USERI5
 70
     0
  9
$USERR1
 40
0.0
  9
$USERR2
 40
0.0
  9
$USERR3
 40
0.0
  9
$USERR4
 40
0.0
  9
$USERR5
 40
0.0
  9
$WORLDVIEW
 70
     1
  9
$SHADEDGE
 70
     3
  9
$SHADEDIF
 70
    70
  9
$TILEMODE
 70
     1
  9
$MAXACTVP
 70
    64
  9
$PINSBASE
 10
0.0
 20
0.0
 30
0.0
  9
$PLIMCHECK
 70
     0
  9
$PEXTMIN
 10
1.0000000000E+20
 20
1.0000000000E+20
 30
1.0000000000E+20
  9
$PEXTMAX
 10
-1.0000000000E+20
 20
-1.0000000000E+20
 30
-1.0000000000E+20
  9
$PLIMMIN
 10
0.0
 20
0.0
  9
$PLIMMAX
 10
420.0
 20
297.0
  9
$UNITMODE
 70
     0
  9
$VISRETAIN
 70
     1
  9
$PLINEGEN
 70
     0
  9
$PSLTSCALE
 70
     1
  9
$TREEDEPTH
 70
  3020
  9
$CMLSTYLE
  2
Standard
  9
$CMLJUST
 70
     0
  9
$CMLSCALE
 40
20.0
  9
$PROXYGRAPHICS
 70
     1
  9
$MEASUREMENT
 70
     1
  9
$CELWEIGHT
370
    -1
  9
$ENDCAPS
280
     0
  9
$JOINSTYLE
280
     0
  9
$LWDISPLAY
290
     1
  9
$INSUNITS
 70
     4
  9
$HYPERLINKBASE
  1

  9
$STYLESHEET
  1

  9
$XEDIT
290
     1
  9
$CEPSNTYPE
380
     0
  9
$PSTYLEMODE
290
     1
  9
$FINGERPRINTGUID
  2
{f7653498-99f6-4cde-9da3-1c3c094d08d3}
  9
$VERSIONGUID
  2
{FAEB1C32-E019-11D5-929B-00C0DF256EC4}
  9
$EXTNAMES
290
     1
  9
$PSVPSCALE
 40
0.0
  9
$OLESTARTUP
290
     0
  0
ENDSEC
  0
SECTION
  2
CLASSES
  0
CLASS
  1
ACDBDICTIONARYWDFLT
  2
AcDbDictionaryWithDefault
  3
ObjectDBX Classes
 90
        0
280
     0
281
     0
  0
CLASS
  1
VISUALSTYLE
  2
AcDbVisualStyle
  3
ObjectDBX Classes
 90
     4095
280
     0
281
     0
  0
CLASS
  1
MATERIAL
  2
AcDbMaterial
  3
ObjectDBX Classes
 90
     1153
280
     0
281
     0
  0
CLASS
  1
SCALE
  2
AcDbScale
  3
ObjectDBX Classes
 90
     1153
280
     0
281
     0
  0
CLASS
  1
TABLESTYLE
  2
AcDbTableStyle
  3
ObjectDBX Classes
 90
     4095
280
     0
281
     0
  0
CLASS
  1
MLEADERSTYLE
  2
AcDbMLeaderStyle
  3
ACDB_MLEADERSTYLE_CLASS
 90
     4095
280
     0
281
     0
  0
CLASS
  1
SUN
  2
AcDbSun
  3
SCENEOE
 90
     1153
280
     0
281
     0
  0
CLASS
  1
ACDBPLACEHOLDER
  2
AcDbPlaceHolder
  3
ObjectDBX Classes
 90
        0
280
     0
281
     0
  0
CLASS
  1
LAYOUT
  2
AcDbLayout
  3
ObjectDBX Classes
 90
        0
280
     0
281
     0
  0
ENDSEC
  0
SECTION
  2
TABLES
  0
TABLE
  2
VPORT
  5
8
330
0
100
AcDbSymbolTable
 70
     1
  0
VPORT
  5
29
330
8
100
AcDbSymbolTableRecord
100
AcDbViewportTableRecord
  2
*Active
 70
     0
 10
0.0
 20
0.0
 11
1.0
 21
1.0
 12
139.7
 22
107.95
 13
0.0
 23
0.0
 14
10.0
 24
10.0
 15
10.0
 25
10.0
 16
0.0
 26
0.0
 36
1.0
 17
0.0
 27
0.0
 37
0.0
 40
215.9
 41
1.2941176471
 42
50.0
 43
0.0
 44
0.0
 50
0.0
 51
0.0
 71
     0
 72
  2000
 73
     1
 74
     3
 75
     0
 76
     0
 77
     0
 78
     0
281
     0
 65
     1
110
0.0
120
0.0
130
0.0
111
1.0
121
0.0
131
0.0
112
0.0
122
1.0
132
0.0
 79
     0
146
0.0
  0
ENDTAB
  0
TABLE
  2
LTYPE
  5
5
330
0
100
AcDbSymbolTable
 70
     6
  0
LTYPE
  5
14
330
5
100
AcDbSymbolTableRecord
100
AcDbLinetypeTableRecord
  2
ByBlock
 70
     0
  3

 72
    65
 73
     0
 40
0.0
  0
LTYPE
  5
15
330
5
100
AcDbSymbolTableRecord
100
AcDbLinetypeTableRecord
  2
ByLayer
 70
     0
  3

 72
    65
 73
     0
 40
0.0
  0
LTYPE
  5
16
330
5
100
AcDbSymbolTableRecord
100
AcDbLinetypeTableRecord
  2
Continuous
 70
     0
  3
Solid line
 72
    65
 73
     0
 40
0.0
  0
LTYPE
  5
6E
330
5
100
AcDbSymbolTableRecord
100
AcDbLinetypeTableRecord
  2
HIDDEN
 70
     0
  3
Hidden __ __ __ __ __ __ __ __ __ __ __ __ __ __
 72
    65
 73
     2
 40
1.905
 49
1.27
 74
     0
 49
-0.635
 74
     0
  0
LTYPE
  5
6F
330
5
100
AcDbSymbolTableRecord
100
AcDbLinetypeTableRecord
  2
PHANTOM
 70
     0
  3
Phantom ______  __  __  ______  __  __  ______
 72
    65
 73
     6
 40
12.7
 49
6.35
 74
     0
 49
-1.27
 74
     0
 49
1.27
 74
     0
 49
-1.27
 74
     0
 49
1.27
 74
     0
 49
-1.27
 74
     0
  0
LTYPE
  5
70
330
5
100
AcDbSymbolTableRecord
100
AcDbLinetypeTableRecord
  2
CENTER
 70
     0
  3
Center ____ _ ____ _ ____ _ ____ _ ____ _ ____
 72
    65
 73
     4
 40
10.16
 49
6.35
 74
     0
 49
-1.27
 74
     0
 49
1.27
 74
     0
 49
-1.27
 74
     0
  0
LTYPE
  5
71
330
5
100
AcDbSymbolTableRecord
100
AcDbLinetypeTableRecord
  2
CENTERX2
 70
     0
  3
Center (2x) ________  __  ________  __  _____
 72
    65
 73
     4
 40
20.32
 49
12.7
 74
     0
 49
-2.54
 74
     0
 49
2.54
 74
     0
 49
-2.54
 74
     0
  0
LTYPE
  5
72
330
5
100
AcDbSymbolTableRecord
100
AcDbLinetypeTableRecord
  2
DOT2
 70
     0
  3
Dot (.5x) ........................................
 72
    65
 73
     2
 40
0.635
 49
0.0
 74
     0
 49
-0.635
 74
     0
  0
ENDTAB
  0
TABLE
  2
LAYER
  5
2
330
0
100
AcDbSymbolTable
 70
    17
  0
LAYER
  5
10
330
2
100
AcDbSymbolTableRecord
100
AcDbLayerTableRecord
  2
0
 70
     0
 62
     7
  6
Continuous
370
    -3
390
F
  0
LAYER
  5
73
330
2
100
AcDbSymbolTableRecord
100
AcDbLayerTableRecord
  2
FORMAT
 70
     0
 62
     7
  6
Continuous
370
    -3
390
F
  0
LAYER
  5
74
330
2
100
AcDbSymbolTableRecord
100
AcDbLayerTableRecord
  2
YARDIMCI_GEOMETRI
 70
     0
 62
    -6
  6
Continuous
290
     0
370
    -3
390
F
  0
LAYER
  5
75
330
2
100
AcDbSymbolTableRecord
100
AcDbLayerTableRecord
  2
SAYFA_CERCEVESI
 70
     0
 62
     7
  6
Continuous
370
    25
390
F
  0
LAYER
  5
76
330
2
100
AcDbSymbolTableRecord
100
AcDbLayerTableRecord
  2
ANTET
 70
     0
 62
     7
  6
Continuous
370
    -3
390
F
  0
LAYER
  5
77
330
2
100
AcDbSymbolTableRecord
100
AcDbLayerTableRecord
  2
OLCU
 70
     0
 62
   150
  6
Continuous
370
    -3
390
F
  0
LAYER
  5
78
330
2
100
AcDbSymbolTableRecord
100
AcDbLayerTableRecord
  2
METIN
 70
     0
 62
    96
  6
Continuous
370
    -3
390
F
  0
LAYER
  5
79
330
2
100
AcDbSymbolTableRecord
100
AcDbLayerTableRecord
  2
BALON
 70
     0
 62
     5
  6
Continuous
370
    -3
390
F
  0
LAYER
  5
7A
330
2
100
AcDbSymbolTableRecord
100
AcDbLayerTableRecord
  2
VURGU
 70
     0
 62
     7
  6
Continuous
370
    -3
390
F
  0
LAYER
  5
7B
330
2
100
AcDbSymbolTableRecord
100
AcDbLayerTableRecord
  2
SILIK
 70
     0
 62
     7
  6
Continuous
370
    -3
390
F
  0
LAYER
  5
7C
330
2
100
AcDbSymbolTableRecord
100
AcDbLayerTableRecord
  2
MODEL
 70
     0
 62
     7
  6
Continuous
370
    -3
390
F
  0
LAYER
  5
7D
330
2
100
AcDbSymbolTableRecord
100
AcDbLayerTableRecord
  2
DETAYLANDıRMA
 70
     0
 62
   190
  6
Continuous
370
    -3
390
F
  0
LAYER
  5
7E
330
2
100
AcDbSymbolTableRecord
100
AcDbLayerTableRecord
  2
TOLERANS
 70
     0
 62
   230
  6
Continuous
370
    -3
390
F
  0
LAYER
  5
7F
330
2
100
AcDbSymbolTableRecord
100
AcDbLayerTableRecord
  2
MERKEZ_CIZGILERI
 70
     0
 62
    30
  6
Continuous
370
    -3
390
F
  0
LAYER
  5
80
330
2
100
AcDbSymbolTableRecord
100
AcDbLayerTableRecord
  2
KESIT-DETAY_CIZGILERI
 70
     0
 62
     7
  6
Continuous
370
    -3
390
F
  0
LAYER
  5
81
330
2
100
AcDbSymbolTableRecord
100
AcDbLayerTableRecord
  2
\U+041E\U+0421\U+0415\U+0412\U+042B\U+0415
 70
     0
 62
     7
  6
Continuous
370
    -3
390
F
  0
LAYER
  5
82
330
2
100
AcDbSymbolTableRecord
100
AcDbLayerTableRecord
  2
\U+0412\U+041E\U+0414\U+042F\U+041D\U+042B\U+0415_\U+0417\U+041D\U+0410\U+041A\U+0418
 70
     0
 62
    11
  6
Continuous
370
    -3
390
F
  0
ENDTAB
  0
TABLE
  2
STYLE
  5
3
330
0
100
AcDbSymbolTable
 70
     1
  0
STYLE
  5
11
330
3
100
AcDbSymbolTableRecord
100
AcDbTextStyleTableRecord
  2
Standard
 70
     0
 40
0.0
 41
1.0
 50
0.0
 71
     0
 42
3.5
  3
txt
  4

  0
ENDTAB
  0
TABLE
  2
VIEW
  5
6
330
0
100
AcDbSymbolTable
 70
     0
  0
ENDTAB
  0
TABLE
  2
UCS
  5
7
330
0
100
AcDbSymbolTable
 70
     0
  0
ENDTAB
  0
TABLE
  2
APPID
  5
9
330
0
100
AcDbSymbolTable
 70
     1
  0
APPID
  5
12
330
9
100
AcDbSymbolTableRecord
100
AcDbRegAppTableRecord
  2
ACAD
 70
     0
  0
ENDTAB
  0
TABLE
  2
DIMSTYLE
  5
A
330
0
100
AcDbSymbolTable
 70
     1
100
AcDbDimStyleTable
  0
DIMSTYLE
105
27
330
A
100
AcDbSymbolTableRecord
100
AcDbDimStyleTableRecord
  2
ISO-25
 70
     0
 41
2.5
 42
0.625
 43
3.75
 44
1.25
 73
     0
 74
     0
 77
     1
 78
     8
140
2.5
141
2.5
143
0.0393700787
147
0.625
171
     3
172
     1
178
     0
271
     2
272
     2
274
     3
278
    44
283
     0
284
     8
340
11
  0
ENDTAB
  0
TABLE
  2
BLOCK_RECORD
  5
1
330
0
100
AcDbSymbolTable
 70
     5
  0
BLOCK_RECORD
  5
1F
330
1
100
AcDbSymbolTableRecord
100
AcDbBlockTableRecord
  2
*Model_Space
340
22
  0
BLOCK_RECORD
  5
1B
330
1
100
AcDbSymbolTableRecord
100
AcDbBlockTableRecord
  2
*Paper_Space
340
1E
  0
BLOCK_RECORD
  5
23
330
1
100
AcDbSymbolTableRecord
100
AcDbBlockTableRecord
  2
*Paper_Space0
340
26
  0
BLOCK_RECORD
  5
AB
330
1
100
AcDbSymbolTableRecord
100
AcDbBlockTableRecord
  2
SW_CENTERMARKSYMBOL_0
340
0
102
{BLKREFS
331
B6
102
}
  0
BLOCK_RECORD
  5
C9
330
1
100
AcDbSymbolTableRecord
100
AcDbBlockTableRecord
  2
SW_CENTERMARKSYMBOL_1
340
0
102
{BLKREFS
331
D4
102
}
  0
BLOCK_RECORD
  5
ED
330
1
100
AcDbSymbolTableRecord
100
AcDbBlockTableRecord
  2
SW_CENTERMARKSYMBOL_2
340
0
102
{BLKREFS
331
F8
102
}
  0
BLOCK_RECORD
  5
10B
330
1
100
AcDbSymbolTableRecord
100
AcDbBlockTableRecord
  2
SW_CENTERMARKSYMBOL_3
340
0
102
{BLKREFS
331
116
102
}
  0
ENDTAB
  0
ENDSEC
  0
SECTION
  2
BLOCKS
  0
BLOCK
  5
20
330
1F
100
AcDbEntity
  8
0
100
AcDbBlockBegin
  2
*Model_Space
 70
     0
 10
0.0
 20
0.0
 30
0.0
  3
*Model_Space
  1

  0
ENDBLK
  5
21
330
1F
100
AcDbEntity
  8
0
100
AcDbBlockEnd
  0
BLOCK
  5
1C
330
1B
100
AcDbEntity
 67
     1
  8
0
100
AcDbBlockBegin
  2
*Paper_Space
 70
     0
 10
0.0
 20
0.0
 30
0.0
  3
*Paper_Space
  1

  0
ENDBLK
  5
1D
330
1B
100
AcDbEntity
 67
     1
  8
0
100
AcDbBlockEnd
  0
BLOCK
  5
24
330
23
100
AcDbEntity
  8
0
100
AcDbBlockBegin
  2
*Paper_Space0
 70
     0
 10
0.0
 20
0.0
 30
0.0
  3
*Paper_Space0
  1

  0
ENDBLK
  5
25
330
23
100
AcDbEntity
  8
0
100
AcDbBlockEnd
  0
BLOCK
  5
AC
330
AB
100
AcDbEntity
  8
0
100
AcDbBlockBegin
  2
SW_CENTERMARKSYMBOL_0
 70
     0
 10
0.0
 20
0.0
 30
0.0
  3
SW_CENTERMARKSYMBOL_0
  1

  0
LINE
  5
AE
330
AB
100
AcDbEntity
  8
FORMAT
 62
     0
100
AcDbLine
 10
0.0
 20
0.0
 30
0.0
 11
0.0
 21
2.5
 31
0.0
  0
LINE
  5
AF
330
AB
100
AcDbEntity
  8
FORMAT
 62
     0
100
AcDbLine
 10
0.0
 20
0.0
 30
0.0
 11
-2.5
 21
0.0
 31
0.0
  0
LINE
  5
B0
330
AB
100
AcDbEntity
  8
FORMAT
 62
     0
100
AcDbLine
 10
0.0
 20
0.0
 30
0.0
 11
0.0
 21
-2.5
 31
0.0
  0
LINE
  5
B1
330
AB
100
AcDbEntity
  8
FORMAT
 62
     0
100
AcDbLine
 10
0.0
 20
0.0
 30
0.0
 11
2.5
 21
0.0
 31
0.0
  0
LINE
  5
B2
330
AB
100
AcDbEntity
  8
FORMAT
 62
     0
100
AcDbLine
 10
0.0
 20
5.0
 30
0.0
 11
0.0
 21
103.0
 31
0.0
  0
LINE
  5
B3
330
AB
100
AcDbEntity
  8
FORMAT
 62
     0
100
AcDbLine
 10
-5.0
 20
0.0
 30
0.0
 11
-103.0
 21
0.0
 31
0.0
  0
LINE
  5
B4
330
AB
100
AcDbEntity
  8
FORMAT
 62
     0
100
AcDbLine
 10
0.0
 20
-5.0
 30
0.0
 11
0.0
 21
-103.0
 31
0.0
  0
LINE
  5
B5
330
AB
100
AcDbEntity
  8
FORMAT
 62
     0
100
AcDbLine
 10
5.0
 20
0.0
 30
0.0
 11
103.0
 21
0.0
 31
0.0
  0
ENDBLK
  5
AD
330
AB
100
AcDbEntity
  8
0
100
AcDbBlockEnd
  0
BLOCK
  5
CA
330
C9
100
AcDbEntity
  8
0
100
AcDbBlockBegin
  2
SW_CENTERMARKSYMBOL_1
 70
     0
 10
0.0
 20
0.0
 30
0.0
  3
SW_CENTERMARKSYMBOL_1
  1

  0
LINE
  5
CC
330
C9
100
AcDbEntity
  8
FORMAT
 62
     0
100
AcDbLine
 10
0.0
 20
0.0
 30
0.0
 11
0.0
 21
2.5
 31
0.0
  0
LINE
  5
CD
330
C9
100
AcDbEntity
  8
FORMAT
 62
     0
100
AcDbLine
 10
0.0
 20
0.0
 30
0.0
 11
-2.5
 21
0.0
 31
0.0
  0
LINE
  5
CE
330
C9
100
AcDbEntity
  8
FORMAT
 62
     0
100
AcDbLine
 10
0.0
 20
0.0
 30
0.0
 11
0.0
 21
-2.5
 31
0.0
  0
LINE
  5
CF
330
C9
100
AcDbEntity
  8
FORMAT
 62
     0
100
AcDbLine
 10
0.0
 20
0.0
 30
0.0
 11
2.5
 21
0.0
 31
0.0
  0
LINE
  5
D0
330
C9
100
AcDbEntity
  8
FORMAT
 62
     0
100
AcDbLine
 10
0.0
 20
5.0
 30
0.0
 11
0.0
 21
103.0
 31
0.0
  0
LINE
  5
D1
330
C9
100
AcDbEntity
  8
FORMAT
 62
     0
100
AcDbLine
 10
-5.0
 20
0.0
 30
0.0
 11
-103.0
 21
0.0
 31
0.0
  0
LINE
  5
D2
330
C9
100
AcDbEntity
  8
FORMAT
 62
     0
100
AcDbLine
 10
0.0
 20
-5.0
 30
0.0
 11
0.0
 21
-103.0
 31
0.0
  0
LINE
  5
D3
330
C9
100
AcDbEntity
  8
FORMAT
 62
     0
100
AcDbLine
 10
5.0
 20
0.0
 30
0.0
 11
103.0
 21
0.0
 31
0.0
  0
ENDBLK
  5
CB
330
C9
100
AcDbEntity
  8
0
100
AcDbBlockEnd
  0
BLOCK
  5
EE
330
ED
100
AcDbEntity
  8
0
100
AcDbBlockBegin
  2
SW_CENTERMARKSYMBOL_2
 70
     0
 10
0.0
 20
0.0
 30
0.0
  3
SW_CENTERMARKSYMBOL_2
  1

  0
LINE
  5
F0
330
ED
100
AcDbEntity
  8
FORMAT
 62
     0
100
AcDbLine
 10
0.0
 20
0.0
 30
0.0
 11
0.0
 21
2.5
 31
0.0
  0
LINE
  5
F1
330
ED
100
AcDbEntity
  8
FORMAT
 62
     0
100
AcDbLine
 10
0.0
 20
0.0
 30
0.0
 11
-2.5
 21
0.0
 31
0.0
  0
LINE
  5
F2
330
ED
100
AcDbEntity
  8
FORMAT
 62
     0
100
AcDbLine
 10
0.0
 20
0.0
 30
0.0
 11
0.0
 21
-2.5
 31
0.0
  0
LINE
  5
F3
330
ED
100
AcDbEntity
  8
FORMAT
 62
     0
100
AcDbLine
 10
0.0
 20
0.0
 30
0.0
 11
2.5
 21
0.0
 31
0.0
  0
LINE
  5
F4
330
ED
100
AcDbEntity
  8
FORMAT
 62
     0
100
AcDbLine
 10
0.0
 20
5.0
 30
0.0
 11
0.0
 21
103.0
 31
0.0
  0
LINE
  5
F5
330
ED
100
AcDbEntity
  8
FORMAT
 62
     0
100
AcDbLine
 10
-5.0
 20
0.0
 30
0.0
 11
-103.0
 21
0.0
 31
0.0
  0
LINE
  5
F6
330
ED
100
AcDbEntity
  8
FORMAT
 62
     0
100
AcDbLine
 10
0.0
 20
-5.0
 30
0.0
 11
0.0
 21
-103.0
 31
0.0
  0
LINE
  5
F7
330
ED
100
AcDbEntity
  8
FORMAT
 62
     0
100
AcDbLine
 10
5.0
 20
0.0
 30
0.0
 11
103.0
 21
0.0
 31
0.0
  0
ENDBLK
  5
EF
330
ED
100
AcDbEntity
  8
0
100
AcDbBlockEnd
  0
BLOCK
  5
10C
330
10B
100
AcDbEntity
  8
0
100
AcDbBlockBegin
  2
SW_CENTERMARKSYMBOL_3
 70
     0
 10
0.0
 20
0.0
 30
0.0
  3
SW_CENTERMARKSYMBOL_3
  1

  0
LINE
  5
10E
330
10B
100
AcDbEntity
  8
FORMAT
 62
     0
100
AcDbLine
 10
0.0
 20
0.0
 30
0.0
 11
0.0
 21
2.5
 31
0.0
  0
LINE
  5
10F
330
10B
100
AcDbEntity
  8
FORMAT
 62
     0
100
AcDbLine
 10
0.0
 20
0.0
 30
0.0
 11
-2.5
 21
0.0
 31
0.0
  0
LINE
  5
110
330
10B
100
AcDbEntity
  8
FORMAT
 62
     0
100
AcDbLine
 10
0.0
 20
0.0
 30
0.0
 11
0.0
 21
-2.5
 31
0.0
  0
LINE
  5
111
330
10B
100
AcDbEntity
  8
FORMAT
 62
     0
100
AcDbLine
 10
0.0
 20
0.0
 30
0.0
 11
2.5
 21
0.0
 31
0.0
  0
LINE
  5
112
330
10B
100
AcDbEntity
  8
FORMAT
 62
     0
100
AcDbLine
 10
0.0
 20
5.0
 30
0.0
 11
0.0
 21
103.0
 31
0.0
  0
LINE
  5
113
330
10B
100
AcDbEntity
  8
FORMAT
 62
     0
100
AcDbLine
 10
-5.0
 20
0.0
 30
0.0
 11
-103.0
 21
0.0
 31
0.0
  0
LINE
  5
114
330
10B
100
AcDbEntity
  8
FORMAT
 62
     0
100
AcDbLine
 10
0.0
 20
-5.0
 30
0.0
 11
0.0
 21
-103.0
 31
0.0
  0
LINE
  5
115
330
10B
100
AcDbEntity
  8
FORMAT
 62
     0
100
AcDbLine
 10
5.0
 20
0.0
 30
0.0
 11
103.0
 21
0.0
 31
0.0
  0
ENDBLK
  5
10D
330
10B
100
AcDbEntity
  8
0
100
AcDbBlockEnd
  0
ENDSEC
  0
SECTION
  2
ENTITIES
  0
LINE
  5
83
330
1F
100
AcDbEntity
  8
0
  6
Continuous
 62
     7
370
    25
100
AcDbLine
 10
167.1812295759
 20
327.3481863874
 30
0.0
 11
79.5410065244
 21
239.707963336
 31
0.0
  0
LINE
  5
84
330
1F
100
AcDbEntity
  8
0
  6
Continuous
 62
     7
370
    25
100
AcDbLine
 10
221.6694695429
 20
97.5795003175
 30
0.0
 11
309.3096925943
 21
185.2197233689
 31
0.0
  0
ARC
  5
85
330
1F
100
AcDbEntity
  8
0
  6
Continuous
 62
     7
370
    25
100
AcDbCircle
 10
222.0230229335
 20
97.2259469269
 30
0.0
 40
0.500000000000004
100
AcDbArc
 50
135.0
 51
180.0
  0
ARC
  5
86
330
1F
100
AcDbEntity
  8
0
  6
Continuous
 62
     7
370
    25
100
AcDbCircle
 10
222.0230229335
 20
97.2259469269
 30
0.0
 40
201.5
100
AcDbArc
 50
135.0
 51
180.0
  0
LINE
  5
87
330
1F
100
AcDbEntity
  8
0
  6
Continuous
 62
     7
370
    25
100
AcDbLine
 10
20.5230229335
 20
97.2259469269
 30
0.0
 11
20.5230229335
 21
-26.7160451219
 31
0.0
  0
LINE
  5
88
330
1F
100
AcDbEntity
  8
0
  6
Continuous
 62
     7
370
    25
100
AcDbLine
 10
221.5230229335
 20
-26.7160451219
 30
0.0
 11
221.5230229335
 21
97.2259469269
 31
0.0
  0
CIRCLE
  5
89
330
1F
100
AcDbEntity
  8
0
  6
Continuous
 62
     7
370
    25
100
AcDbCircle
 10
121.0230229335
 20
-16.7160451219
 30
0.0
 40
5.0
  0
CIRCLE
  5
8A
330
1F
100
AcDbEntity
  8
0
  6
Continuous
 62
     7
370
    25
100
AcDbCircle
 10
121.0230229335
 20
-16.7160451219
 30
0.0
 40
7.0
  0
CIRCLE
  5
8B
330
1F
100
AcDbEntity
  8
0
  6
Continuous
 62
     7
370
    25
100
AcDbCircle
 10
231.1743932732
 20
249.2128870663
 30
0.0
 40
7.000000000000028
  0
CIRCLE
  5
8C
330
1F
100
AcDbEntity
  8
0
  6
Continuous
 62
     7
370
    25
100
AcDbCircle
 10
231.1743932732
 20
249.2128870663
 30
0.0
 40
5.000000000000028
  0
LINE
  5
8D
330
1F
100
AcDbEntity
  8
0
  6
Continuous
 62
     7
370
    25
100
AcDbLine
 10
238.2454610851
 20
256.2839548781
 30
0.0
 11
309.3096925943
 21
185.2197233689
 31
0.0
  0
LINE
  5
8E
330
1F
100
AcDbEntity
  8
0
  6
Continuous
 62
     7
370
    25
100
AcDbLine
 10
167.1812295759
 20
327.3481863874
 30
0.0
 11
238.2454610851
 21
256.2839548781
 31
0.0
  0
LINE
  5
8F
330
1F
100
AcDbEntity
  8
0
  6
Continuous
 62
     7
370
    25
100
AcDbLine
 10
121.0230229335
 20
-26.7160451219
 30
0.0
 11
221.5230229335
 21
-26.7160451219
 31
0.0
  0
LINE
  5
90
330
1F
100
AcDbEntity
  8
0
  6
Continuous
 62
     7
370
    25
100
AcDbLine
 10
20.5230229335
 20
-26.7160451219
 30
0.0
 11
121.0230229335
 21
-26.7160451219
 31
0.0
  0
LINE
  5
91
330
1F
100
AcDbEntity
  8
0
  6
Continuous
 62
     1
370
    25
100
AcDbLine
 10
150.6052380337
 20
168.6437318267
 30
0.0
 11
221.6694695429
 21
97.5795003175
 31
0.0
  0
LINE
  5
92
330
1F
100
AcDbEntity
  8
0
  6
Continuous
 62
     1
370
    25
100
AcDbLine
 10
79.5410065244
 20
239.707963336
 30
0.0
 11
150.6052380337
 21
168.6437318267
 31
0.0
  0
LINE
  5
93
330
1F
100
AcDbEntity
  8
0
  6
Continuous
 62
     1
370
    25
100
AcDbLine
 10
121.0230229335
 20
97.2259469269
 30
0.0
 11
221.5230229335
 21
97.2259469269
 31
0.0
  0
LINE
  5
94
330
1F
100
AcDbEntity
  8
0
  6
Continuous
 62
     1
370
    25
100
AcDbLine
 10
20.5230229335
 20
97.2259469269
 30
0.0
 11
121.0230229335
 21
97.2259469269
 31
0.0
  0
LINE
  5
95
330
1F
100
AcDbEntity
  8
0
  6
Continuous
 62
     7
370
    25
100
AcDbLine
 10
-392.2609360755
 20
242.2128870663
 30
0.0
 11
-392.2609360755
 21
168.6437318267
 31
0.0
  0
LINE
  5
96
330
1F
100
AcDbEntity
  8
0
  6
Continuous
 62
     7
370
    25
100
AcDbLine
 10
-392.2609360755
 20
256.2839548781
 30
0.0
 11
-392.2609360755
 21
254.0986251383
 31
0.0
  0
LINE
  5
97
330
1F
100
AcDbEntity
  8
0
  6
Continuous
 62
     7
370
    25
100
AcDbLine
 10
-191.2609360755
 20
168.6437318267
 30
0.0
 11
-191.2609360755
 21
256.2839548781
 31
0.0
  0
LINE
  5
98
330
1F
100
AcDbEntity
  8
0
  6
Continuous
 62
     7
370
    25
100
AcDbLine
 10
-392.2609360755
 20
256.2128870663
 30
0.0
 11
-407.2609360755
 21
256.2128870663
 31
0.0
  0
LINE
  5
99
330
1F
100
AcDbEntity
  8
0
  6
Continuous
 62
     7
370
    25
100
AcDbLine
 10
-407.2609360755
 20
242.2128870663
 30
0.0
 11
-392.1384659931
 21
242.2128870663
 31
0.0
  0
LINE
  5
9A
330
1F
100
AcDbEntity
  8
0
  6
Continuous
 62
     7
370
    25
100
AcDbLine
 10
-392.2609360755
 20
168.6437318267
 30
0.0
 11
-392.2609360755
 21
97.2259469269
 31
0.0
  0
LINE
  5
9B
330
1F
100
AcDbEntity
  8
0
  6
Continuous
 62
     7
370
    25
100
AcDbLine
 10
-191.2609360755
 20
97.2259469269
 30
0.0
 11
-191.2609360755
 21
168.6437318267
 31
0.0
  0
LINE
  5
9C
330
1F
100
AcDbEntity
  8
0
  6
Continuous
 62
     7
370
    25
100
AcDbLine
 10
-392.2609360755
 20
-23.626769395
 30
0.0
 11
-392.2609360755
 21
-26.7160451219
 31
0.0
  0
LINE
  5
9D
330
1F
100
AcDbEntity
  8
0
  6
Continuous
 62
     7
370
    25
100
AcDbLine
 10
-392.2609360755
 20
97.2259469269
 30
0.0
 11
-392.2609360755
 21
-9.7241498675
 31
0.0
  0
LINE
  5
9E
330
1F
100
AcDbEntity
  8
0
  6
Continuous
 62
     7
370
    25
100
AcDbLine
 10
-191.2609360755
 20
-26.7160451219
 30
0.0
 11
-191.2609360755
 21
97.2259469269
 31
0.0
  0
LINE
  5
9F
330
1F
100
AcDbEntity
  8
0
  6
Continuous
 62
     7
370
    25
100
AcDbLine
 10
-392.2604006397
 20
-9.7160451219
 30
0.0
 11
-407.2609360755
 21
-9.7160451219
 31
0.0
  0
LINE
  5
A0
330
1F
100
AcDbEntity
  8
0
  6
Continuous
 62
     7
370
    25
100
AcDbLine
 10
-407.2609360755
 20
-23.7160451219
 30
0.0
 11
-392.2547926201
 21
-23.7160451219
 31
0.0
  0
LWPOLYLINE
  5
A1
330
1F
100
AcDbEntity
  8
0
  6
Continuous
 62
     7
370
    25
100
AcDbPolyline
 90
      108
 70
   128
 43
0.0
 10
-392.2609360755
 20
256.2839548781
 10
-392.0877139156
 20
252.1133644993
 10
-391.5686445687
 20
247.9571510095
 10
-390.7055173743
 20
243.8296417376
 10
-389.5013077106
 20
239.7450650632
 10
-387.9601667379
 20
235.7175013681
 10
-386.0874070883
 20
231.7608344989
 10
-383.8894845523
 20
227.8887039059
 10
-381.3739758242
 20
224.1144576254
 10
-378.5495523838
 20
220.4511062662
 10
-375.4259506037
 20
216.9112781594
 10
-372.0139381863
 20
213.5071758257
 10
-368.3252770453
 20
210.2505339111
 10
-364.3726827598
 20
207.1525787349
 10
-360.1697807411
 20
204.2239895905
 10
-355.7310592632
 20
201.4748619312
 10
-351.0718195186
 20
198.9146725696
 10
-346.2081228717
 20
196.5522470088
 10
-341.1567354926
 20
194.3957290192
 10
-335.93507056
 20
192.4525525649
 10
-330.5611282347
 20
190.7294161779
 10
-325.0534336091
 20
189.2322598661
 10
-319.4309728476
 20
187.9662446376
 10
-313.7131277371
 20
186.935734709
 10
-307.9196088744
 20
186.1442824617
 10
-302.070387719
 20
185.5946161954
 10
-296.1856277481
 20
185.2886307236
 10
-290.2856149484
 20
185.2273808418
 10
-284.3906878863
 20
185.4110776908
 10
-278.5211675965
 20
185.8390880296
 10
-272.6972875314
 20
186.5099364179
 10
-266.9391238121
 20
187.4213103023
 10
-261.2665260217
 20
188.5700679882
 10
-255.6990487801
 20
189.95224947
 10
-250.2558843347
 20
191.5630900817
 10
-244.9557964008
 20
193.397036922
 10
-239.8170554797
 20
195.4477679963
 10
-234.8573758757
 20
197.7082140096
 10
-230.0938546319
 20
200.1705827364
 10
-225.542912593
 20
202.8263858814
 10
-221.2202377987
 20
205.6664683412
 10
-217.1407314048
 20
208.681039763
 10
-213.3184563148
 20
211.8597082948
 10
-209.7665887028
 20
215.1915164074
 10
-206.4973725923
 20
218.6649786683
 10
-203.5220776484
 20
222.2681213334
 10
-200.8509603292
 20
225.9885236234
 10
-198.4932285295
 20
229.8133605411
 10
-196.4570098391
 20
233.7294470811
 10
-194.7493235258
 20
237.7232836819
 10
-193.376056338
 20
241.7811027614
 10
-192.3419422122
 20
245.8889161766
 10
-191.650545954
 20
250.0325634436
 10
-191.3042509496
 20
254.1977605519
 10
-191.3042509496
 20
258.3701492043
 10
-191.650545954
 20
262.5353463127
 10
-192.3419422122
 20
266.6789935797
 10
-193.376056338
 20
270.7868069948
 10
-194.7493235258
 20
274.8446260743
 10
-196.4570098391
 20
278.8384626751
 10
-198.4932285295
 20
282.7545492152
 10
-200.8509603292
 20
286.5793861328
 10
-203.5220776484
 20
290.2997884229
 10
-206.4973725923
 20
293.9029310879
 10
-209.7665887028
 20
297.3763933488
 10
-213.3184563148
 20
300.7082014615
 10
-217.1407314048
 20
303.8868699932
 10
-221.2202377987
 20
306.9014414151
 10
-225.542912593
 20
309.7415238748
 10
-230.0938546319
 20
312.3973270199
 10
-234.8573758757
 20
314.8596957466
 10
-239.8170554797
 20
317.12014176
 10
-244.9557964008
 20
319.1708728342
 10
-250.2558843347
 20
321.0048196746
 10
-255.6990487801
 20
322.6156602863
 10
-261.2665260217
 20
323.997841768
 10
-266.9391238121
 20
325.146599454
 10
-272.6972875314
 20
326.0579733384
 10
-278.5211675965
 20
326.7288217267
 10
-284.3906878863
 20
327.1568320655
 10
-290.2856149484
 20
327.3405289145
 10
-296.1856277481
 20
327.2792790326
 10
-302.070387719
 20
326.9732935609
 10
-307.9196088744
 20
326.4236272946
 10
-313.7131277371
 20
325.6321750473
 10
-319.4309728476
 20
324.6016651187
 10
-325.0534336091
 20
323.3356498902
 10
-330.5611282347
 20
321.8384935784
 10
-335.9350705601
 20
320.1153571913
 10
-341.1567354926
 20
318.1721807371
 10
-346.2081228717
 20
316.0156627475
 10
-351.0718195186
 20
313.6532371867
 10
-355.7310592632
 20
311.0930478251
 10
-360.1697807411
 20
308.3439201658
 10
-364.3726827598
 20
305.4153310213
 10
-368.3252770453
 20
302.3173758452
 10
-372.0139381863
 20
299.0607339306
 10
-375.4259506037
 20
295.6566315969
 10
-378.5495523838
 20
292.11680349
 10
-381.3739758242
 20
288.4534521308
 10
-383.8894845523
 20
284.6792058503
 10
-386.0874070883
 20
280.8070752573
 10
-387.9601667379
 20
276.8504083881
 10
-389.5013077106
 20
272.8228446931
 10
-390.7055173743
 20
268.7382680187
 10
-391.5686445687
 20
264.6107587468
 10
-392.0877139156
 20
260.454545257
 10
-392.2609360755
 20
256.2839548781
  0
LWPOLYLINE
  5
A2
330
1F
100
AcDbEntity
  8
0
  6
Continuous
 62
     7
370
    25
100
AcDbPolyline
 90
       96
 70
   128
 43
0.0
 10
-371.7609360755
 20
256.2839548781
 10
-371.586026253
 20
260.0226029061
 10
-371.0620616216
 20
263.7449027774
 10
-370.1913333454
 20
267.434577822
 10
-368.9776488977
 20
271.0754940295
 10
-367.4263154115
 20
274.6517305999
 10
-365.5441164737
 20
278.1476495605
 10
-363.3392824611
 20
281.5479641472
 10
-360.8214545521
 20
284.8378056495
 10
-358.0016425673
 20
288.0027884275
 10
-354.8921768272
 20
291.0290728168
 10
-351.5066542342
 20
293.9034256459
 10
-347.8598788173
 20
296.6132781011
 10
-343.9677969974
 20
299.1467806872
 10
-339.8474278581
 20
301.4928550419
 10
-335.5167887253
 20
303.641242379
 10
-330.9948163819
 20
305.5825483474
 10
-326.3012842625
 20
307.30828411
 10
-321.4567159889
 20
308.8109034633
 10
-316.4822956255
 20
310.0838358352
 10
-311.3997750467
 20
311.1215150165
 10
-306.231378822
 20
311.9194035
 10
-300.999707033
 20
312.4740123225
 10
-295.7276364493
 20
312.7829163205
 10
-290.4382204942
 20
312.8447647357
 10
-285.1545884377
 20
312.6592871206
 10
-279.8998442585
 20
312.2272945215
 10
-274.696965616
 20
311.5506759323
 10
-269.5687033745
 20
310.6323900338
 10
-264.5374821201
 20
309.4764522567
 10
-259.6253021032
 20
308.0879172227
 10
-254.8536430372
 20
306.4728566423
 10
-250.243370173
 20
304.6383327644
 10
-245.8146430608
 20
302.5923674951
 10
-241.5868273976
 20
300.3439073201
 10
-237.5784103454
 20
297.9027841836
 10
-233.8069196922
 20
295.2796724959
 10
-230.2888472069
 20
292.486042457
 10
-227.0395765255
 20
289.5341099003
 10
-224.0733158818
 20
286.4367828758
 10
-221.4030359789
 20
283.2076052065
 10
-219.0404132715
 20
279.8606972647
 10
-216.9957789075
 20
276.4106942272
 10
-215.2780735527
 20
272.8726820796
 10
-213.8948082956
 20
269.2621316486
 10
-212.8520318032
 20
265.5948309529
 10
-212.1543038719
 20
261.886816165
 10
-211.8046754882
 20
258.1543014904
 10
-211.8046754882
 20
254.4136082659
 10
-212.1543038719
 20
250.6810935912
 10
-212.8520318032
 20
246.9730788034
 10
-213.8948082956
 20
243.3057781076
 10
-215.2780735527
 20
239.6952276767
 10
-216.9957789075
 20
236.1572155291
 10
-219.0404132715
 20
232.7072124916
 10
-221.4030359789
 20
229.3603045498
 10
-224.0733158818
 20
226.1311268804
 10
-227.0395765255
 20
223.0337998559
 10
-230.2888472069
 20
220.0818672993
 10
-233.8069196922
 20
217.2882372604
 10
-237.5784103454
 20
214.6651255727
 10
-241.5868273976
 20
212.2240024361
 10
-245.8146430608
 20
209.9755422611
 10
-250.243370173
 20
207.9295769919
 10
-254.8536430372
 20
206.095053114
 10
-259.6253021032
 20
204.4799925335
 10
-264.5374821201
 20
203.0914574995
 10
-269.5687033745
 20
201.9355197224
 10
-274.696965616
 20
201.017233824
 10
-279.8998442585
 20
200.3406152347
 10
-285.1545884377
 20
199.9086226357
 10
-290.4382204942
 20
199.7231450205
 10
-295.7276364493
 20
199.7849934357
 10
-300.999707033
 20
200.0938974338
 10
-306.231378822
 20
200.6485062562
 10
-311.3997750467
 20
201.4463947398
 10
-316.4822956255
 20
202.484073921
 10
-321.4567159889
 20
203.757006293
 10
-326.3012842625
 20
205.2596256463
 10
-330.9948163819
 20
206.9853614088
 10
-335.5167887253
 20
208.9266673772
 10
-339.8474278581
 20
211.0750547143
 10
-343.9677969974
 20
213.4211290691
 10
-347.8598788173
 20
215.9546316551
 10
-351.5066542342
 20
218.6644841103
 10
-354.8921768272
 20
221.5388369394
 10
-358.0016425673
 20
224.5651213288
 10
-360.8214545521
 20
227.7301041068
 10
-363.3392824611
 20
231.0199456091
 10
-365.5441164737
 20
234.4202601958
 10
-367.4263154115
 20
237.9161791563
 10
-368.9776488977
 20
241.4924157267
 10
-370.1913333454
 20
245.1333319343
 10
-371.0620616216
 20
248.8230069788
 10
-371.586026253
 20
252.5453068502
 10
-371.7609360755
 20
256.2839548781
  0
SPLINE
  5
A3
330
1F
100
AcDbEntity
  8
0
  6
Continuous
 62
     7
370
    25
100
AcDbSpline
210
0.0
220
0.0
230
1.0
 70
     8
 71
     3
 72
    15
 73
    11
 74
     0
 42
0.00000001
 43
0.00000001
 40
0.0
 40
0.0
 40
0.0
 40
0.0
 40
0.0484186846270041
 40
0.1917559751036473
 40
0.3349661887171677
 40
0.4778722694847263
 40
0.6207723656058706
 40
0.7639732444195207
 40
0.9073129819719011
 40
1.0
 40
1.0
 40
1.0
 40
1.0
 10
-392.1384659931359
 20
242.3015774803226
 30
0.0
 10
-392.1293567786902
 20
242.2773102204044
 30
0.0
 10
-392.0932809060816
 20
242.1812028576259
 30
0.0
 10
-392.0353549532892
 20
242.828319439368
 30
0.0
 10
-392.0073121210754
 20
244.1779956818848
 30
0.0
 10
-392.0365747405866
 20
246.1448484689416
 30
0.0
 10
-392.1111234797916
 20
248.446659311121
 30
0.0
 10
-392.1958089331599
 20
250.8187987495863
 30
0.0
 10
-392.2553308694065
 20
252.8255910140913
 30
0.0
 10
-392.254868758159
 20
253.7396802134733
 30
0.0
 10
-392.2546872884209
 20
254.0986403741299
 30
0.0
  0
LINE
  5
A4
330
1F
100
AcDbEntity
  8
0
  6
Continuous
 62
     7
370
    25
100
AcDbLine
 10
-407.2609360755
 20
256.2128870663
 30
0.0
 11
-407.2609360755
 21
242.2128870663
 31
0.0
  0
LINE
  5
A5
330
1F
100
AcDbEntity
  8
0
  6
Continuous
 62
     7
370
    25
100
AcDbLine
 10
-392.2609360755
 20
-26.7160451219
 30
0.0
 11
-191.2609360755
 21
-26.7160451219
 31
0.0
  0
SPLINE
  5
A6
330
1F
100
AcDbEntity
  8
0
  6
Continuous
 62
     7
370
    25
100
AcDbSpline
210
0.0
220
0.0
230
1.0
 70
     8
 71
     3
 72
    17
 73
    13
 74
     0
 42
0.00000001
 43
0.00000001
 40
0.0
 40
0.0
 40
0.0
 40
0.0
 40
0.0366960133585931
 40
0.1437974495193062
 40
0.2509939063671911
 40
0.3584171435234035
 40
0.4658459740680598
 40
0.5730489957599644
 40
0.6801476549737182
 40
0.7874258035516226
 40
0.8948874388869499
 40
1.0
 40
1.0
 40
1.0
 40
1.0
 10
-392.2547750565921
 20
-23.62676939499424
 30
0.0
 10
-392.2564639674791
 20
-23.65127560482417
 30
0.0
 10
-392.2630821544648
 20
-23.74730594023131
 30
0.0
 10
-392.2181180145425
 20
-23.10070087114584
 30
0.0
 10
-392.1388303293577
 20
-21.75445529561624
 30
0.0
 10
-392.0559529433548
 20
-19.78615480375223
 30
0.0
 10
-392.0103473954824
 20
-17.48460223809
 30
0.0
 10
-392.0208117854498
 20
-15.09585265689745
 30
0.0
 10
-392.0832386747389
 20
-12.88810227290098
 30
0.0
 10
-392.1689106736748
 20
-11.12507310006538
 30
0.0
 10
-392.2449987463319
 20
-9.93869996832483
 30
0.0
 10
-392.2552951476265
 20
-9.795137751184573
 30
0.0
 10
-392.2603864575239
 20
-9.724149867542996
 30
0.0
  0
LINE
  5
A7
330
1F
100
AcDbEntity
  8
0
  6
Continuous
 62
     7
370
    25
100
AcDbLine
 10
-407.2609360755
 20
-9.7160451219
 30
0.0
 11
-407.2609360755
 21
-23.7160451219
 31
0.0
  0
LWPOLYLINE
  5
A8
330
1F
100
AcDbEntity
  8
0
  6
Continuous
 62
     1
370
    25
100
AcDbPolyline
 90
       55
 70
   128
 43
0.0
 10
-392.2609360755
 20
168.6437318267
 10
-392.0877139156
 20
164.4731414479
 10
-391.5686445687
 20
160.316927958
 10
-390.7055173743
 20
156.1894186862
 10
-389.5013077106
 20
152.1048420117
 10
-387.9601667379
 20
148.0772783167
 10
-386.0874070883
 20
144.1206114475
 10
-383.8894845523
 20
140.2484808545
 10
-381.3739758242
 20
136.474234574
 10
-378.5495523838
 20
132.8108832148
 10
-375.4259506037
 20
129.271055108
 10
-372.0139381863
 20
125.8669527743
 10
-368.3252770453
 20
122.6103108597
 10
-364.3726827598
 20
119.5123556835
 10
-360.1697807411
 20
116.583766539
 10
-355.7310592632
 20
113.8346388797
 10
-351.0718195186
 20
111.2744495181
 10
-346.2081228717
 20
108.9120239574
 10
-341.1567354926
 20
106.7555059677
 10
-335.93507056
 20
104.8123295135
 10
-330.5611282347
 20
103.0891931265
 10
-325.0534336091
 20
101.5920368147
 10
-319.4309728476
 20
100.3260215861
 10
-313.7131277371
 20
99.2955116576
 10
-307.9196088744
 20
98.5040594102
 10
-302.070387719
 20
97.954393144
 10
-296.1856277481
 20
97.6484076722
 10
-290.2856149484
 20
97.5871577903
 10
-284.3906878863
 20
97.7708546393
 10
-278.5211675965
 20
98.1988649781
 10
-272.6972875314
 20
98.8697133664
 10
-266.9391238121
 20
99.7810872509
 10
-261.2665260217
 20
100.9298449368
 10
-255.6990487801
 20
102.3120264186
 10
-250.2558843347
 20
103.9228670303
 10
-244.9557964008
 20
105.7568138706
 10
-239.8170554797
 20
107.8075449448
 10
-234.8573758757
 20
110.0679909582
 10
-230.0938546319
 20
112.530359685
 10
-225.542912593
 20
115.18616283
 10
-221.2202377987
 20
118.0262452898
 10
-217.1407314048
 20
121.0408167116
 10
-213.3184563148
 20
124.2194852433
 10
-209.7665887028
 20
127.551293356
 10
-206.4973725923
 20
131.0247556169
 10
-203.5220776484
 20
134.627898282
 10
-200.8509603292
 20
138.348300572
 10
-198.4932285295
 20
142.1731374897
 10
-196.4570098391
 20
146.0892240297
 10
-194.7493235258
 20
150.0830606305
 10
-193.376056338
 20
154.14087971
 10
-192.3419422122
 20
158.2486931252
 10
-191.650545954
 20
162.3923403922
 10
-191.3042509496
 20
166.5575375005
 10
-191.2609360755
 20
168.6437318267
  0
LWPOLYLINE
  5
A9
330
1F
100
AcDbEntity
  8
0
  6
Continuous
 62
     1
370
    25
100
AcDbPolyline
 90
       23
 70
   128
 43
0.0
 10
-342.3533826633
 20
212.4638433524
 10
-339.8474278581
 20
213.8526319905
 10
-335.5167887253
 20
216.0010193276
 10
-330.9948163819
 20
217.942325296
 10
-326.3012842625
 20
219.6680610585
 10
-321.4567159889
 20
221.1706804118
 10
-316.4822956255
 20
222.4436127838
 10
-311.3997750467
 20
223.4812919651
 10
-306.231378822
 20
224.2791804486
 10
-300.999707033
 20
224.833789271
 10
-295.7276364493
 20
225.1426932691
 10
-290.4382204942
 20
225.2045416843
 10
-285.1545884377
 20
225.0190640691
 10
-279.8998442585
 20
224.5870714701
 10
-274.696965616
 20
223.9104528809
 10
-269.5687033745
 20
222.9921669824
 10
-264.5374821201
 20
221.8362292053
 10
-259.6253021032
 20
220.4476941713
 10
-254.8536430372
 20
218.8326335909
 10
-250.243370173
 20
216.9981097129
 10
-245.8146430608
 20
214.9521444437
 10
-241.5868273976
 20
212.7036842687
 10
-241.1684894876
 20
212.4638433524
  0
LINE
  5
AA
330
1F
100
AcDbEntity
  8
0
  6
Continuous
 62
     1
370
    25
100
AcDbLine
 10
-392.2609360755
 20
97.2259469269
 30
0.0
 11
-191.2609360755
 21
97.2259469269
 31
0.0
  0
INSERT
  5
B6
330
1F
100
AcDbEntity
  8
FORMAT
 62
     7
100
AcDbBlockReference
  2
SW_CENTERMARKSYMBOL_0
 10
-291.7609360755
 20
178.2839548781
 30
0.0
  0
LINE
  5
B7
330
1F
100
AcDbEntity
  8
0
  6
Continuous
 62
     7
370
    25
100
AcDbLine
 10
128.0230229335
 20
635.1191899251
 30
0.0
 11
128.0230229335
 21
650.357322961
 31
0.0
  0
LINE
  5
B8
330
1F
100
AcDbEntity
  8
0
  6
Continuous
 62
     7
370
    25
100
AcDbLine
 10
114.0230229335
 20
650.357322961
 30
0.0
 11
114.0230229335
 21
635.1132454793
 31
0.0
  0
LINE
  5
B9
330
1F
100
AcDbEntity
  8
0
  6
Continuous
 62
     7
370
    25
100
AcDbLine
 10
150.6052380337
 20
635.357322961
 30
0.0
 11
128.0230229335
 21
635.357322961
 31
0.0
  0
LINE
  5
BA
330
1F
100
AcDbEntity
  8
0
  6
Continuous
 62
     7
370
    25
100
AcDbLine
 10
121.0230229335
 20
434.357322961
 30
0.0
 11
150.6052380337
 21
434.357322961
 31
0.0
  0
LINE
  5
BB
330
1F
100
AcDbEntity
  8
0
  6
Continuous
 62
     7
370
    25
100
AcDbLine
 10
226.2865705712
 20
635.357322961
 30
0.0
 11
150.6052380337
 21
635.357322961
 31
0.0
  0
LINE
  5
BC
330
1F
100
AcDbEntity
  8
0
  6
Continuous
 62
     7
370
    25
100
AcDbLine
 10
238.2454610851
 20
635.357322961
 30
0.0
 11
238.1743932732
 21
635.357322961
 31
0.0
  0
LINE
  5
BD
330
1F
100
AcDbEntity
  8
0
  6
Continuous
 62
     7
370
    25
100
AcDbLine
 10
150.6052380337
 20
434.357322961
 30
0.0
 11
238.2454610851
 21
434.357322961
 31
0.0
  0
LINE
  5
BE
330
1F
100
AcDbEntity
  8
0
  6
Continuous
 62
     7
370
    25
100
AcDbLine
 10
238.1743932732
 20
635.2348115653
 30
0.0
 11
238.1743932732
 21
650.357322961
 31
0.0
  0
LINE
  5
BF
330
1F
100
AcDbEntity
  8
0
  6
Continuous
 62
     7
370
    25
100
AcDbLine
 10
224.1743932732
 20
650.357322961
 30
0.0
 11
224.1743932732
 21
635.357322961
 31
0.0
  0
CIRCLE
  5
C0
330
1F
100
AcDbEntity
  8
0
  6
Continuous
 62
     7
370
    25
100
AcDbCircle
 10
121.0230229335
 20
534.857322961
 30
0.0
 40
79.99999999999989
  0
CIRCLE
  5
C1
330
1F
100
AcDbEntity
  8
0
  6
Continuous
 62
     7
370
    25
100
AcDbCircle
 10
121.0230229335
 20
534.857322961
 30
0.0
 40
100.5
  0
LINE
  5
C2
330
1F
100
AcDbEntity
  8
0
  6
Continuous
 62
     7
370
    25
100
AcDbLine
 10
128.0230229335
 20
650.357322961
 30
0.0
 11
114.0230229335
 21
650.357322961
 31
0.0
  0
LWPOLYLINE
  5
C3
330
1F
100
AcDbEntity
  8
0
  6
Continuous
 62
     7
370
    25
100
AcDbPolyline
 90
       55
 70
   128
 43
0.0
 10
238.2454610851
 20
635.357322961
 10
242.4160514639
 20
635.1841008011
 10
246.5722649538
 20
634.6650314542
 10
250.6997742256
 20
633.8019042598
 10
254.7843509001
 20
632.5976945961
 10
258.8119145951
 20
631.0565536234
 10
262.7685814643
 20
629.1837939738
 10
266.6407120573
 20
626.9858714378
 10
270.4149583378
 20
624.4703627097
 10
274.078309697
 20
621.6459392693
 10
277.6181378038
 20
618.5223374891
 10
281.0222401375
 20
615.1103250718
 10
284.2788820521
 20
611.4216639308
 10
287.3768372283
 20
607.4690696453
 10
290.3054263728
 20
603.2661676266
 10
293.0545540321
 20
598.8274461487
 10
295.6147433937
 20
594.1682064041
 10
297.9771689544
 20
589.3045097572
 10
300.1336869441
 20
584.2531223781
 10
302.0768633983
 20
579.0314574455
 10
303.7999997853
 20
573.6575151202
 10
305.2971560971
 20
568.1498204946
 10
306.5631713257
 20
562.5273597331
 10
307.5936812542
 20
556.8095146226
 10
308.3851335016
 20
551.0159957599
 10
308.9347997679
 20
545.1667746045
 10
309.2407852396
 20
539.2820146336
 10
309.3020351215
 20
533.3820018339
 10
309.1183382725
 20
527.4870747718
 10
308.6903279337
 20
521.617554482
 10
308.0194795454
 20
515.7936744169
 10
307.108105661
 20
510.0355106975
 10
305.959347975
 20
504.3629129072
 10
304.5771664932
 20
498.7954356656
 10
302.9663258815
 20
493.3522712202
 10
301.1323790412
 20
488.0521832863
 10
299.081647967
 20
482.9134423652
 10
296.8212019536
 20
477.9537627612
 10
294.3588332268
 20
473.1902415174
 10
291.7030300818
 20
468.6392994784
 10
288.862947622
 20
464.3166246842
 10
285.8483762002
 20
460.2371182903
 10
282.6697076685
 20
456.4148432003
 10
279.3378995558
 20
452.8629755883
 10
275.8644372949
 20
449.5937594778
 10
272.2612946298
 20
446.6184645339
 10
268.5408923398
 20
443.9473472147
 10
264.7160554221
 20
441.5896154149
 10
260.7999688821
 20
439.5533967246
 10
256.8061322813
 20
437.8457104113
 10
252.7483132018
 20
436.4724432235
 10
248.6404997866
 20
435.4383290977
 10
244.4968525196
 20
434.7469328395
 10
240.3316554113
 20
434.4006378351
 10
238.2454610851
 20
434.357322961
  0
SPLINE
  5
C4
330
1F
100
AcDbEntity
  8
0
  6
Continuous
 62
     7
370
    25
100
AcDbSpline
210
0.0
220
0.0
230
1.0
 70
     8
 71
     3
 72
    15
 73
    11
 74
     0
 42
0.00000001
 43
0.00000001
 40
0.0
 40
0.0
 40
0.0
 40
0.0
 40
0.0958013453708981
 40
0.2386596086597039
 40
0.3817531392017348
 40
0.5250937056201838
 40
0.6683071922711967
 40
0.8112165391253594
 40
0.9541199011963301
 40
1.0
 40
1.0
 40
1.0
 40
1.0
 10
226.2865536420622
 20
635.3512812848467
 30
0.0
 10
226.6600389099395
 20
635.351228602926
 30
0.0
 10
227.590462668882
 20
635.3510973621114
 30
0.0
 10
229.6132448689556
 20
635.2906974756814
 30
0.0
 10
231.9860451219817
 20
635.2058597992008
 30
0.0
 10
234.2869764480976
 20
635.1317854615938
 30
0.0
 10
236.2462370858006
 20
635.1037040983596
 30
0.0
 10
237.5786823801678
 20
635.1328979147156
 30
0.0
 10
238.2116713938286
 20
635.190777551081
 30
0.0
 10
238.1121923742972
 20
635.2262022826118
 30
0.0
 10
238.0880159595634
 20
635.2348115653062
 30
0.0
  0
ARC
  5
C5
330
1F
100
AcDbEntity
  8
0
  6
Continuous
 62
     7
370
    25
100
AcDbCircle
 10
289.9745439286
 20
534.857322961
 30
0.0
 40
108.3592266813991
100
AcDbArc
 50
157.740720108
 51
202.259279892
  0
LINE
  5
C6
330
1F
100
AcDbEntity
  8
0
  6
Continuous
 62
     7
370
    25
100
AcDbLine
 10
238.1743932732
 20
650.357322961
 30
0.0
 11
224.1743932732
 21
650.357322961
 31
0.0
  0
LWPOLYLINE
  5
C7
330
1F
100
AcDbEntity
  8
0
  6
Continuous
 62
     1
370
    25
100
AcDbPolyline
 90
       55
 70
   128
 43
0.0
 10
150.6052380337
 20
635.357322961
 10
154.7758284125
 20
635.1841008011
 10
158.9320419023
 20
634.6650314542
 10
163.0595511742
 20
633.8019042598
 10
167.1441278487
 20
632.5976945961
 10
171.1716915437
 20
631.0565536234
 10
175.1283584129
 20
629.1837939738
 10
179.0004890059
 20
626.9858714378
 10
182.7747352864
 20
624.4703627097
 10
186.4380866456
 20
621.6459392693
 10
189.9779147524
 20
618.5223374891
 10
193.3820170861
 20
615.1103250718
 10
196.6386590007
 20
611.4216639308
 10
199.7366141769
 20
607.4690696453
 10
202.6652033213
 20
603.2661676266
 10
205.4143309807
 20
598.8274461487
 10
207.9745203422
 20
594.1682064041
 10
210.336945903
 20
589.3045097572
 10
212.4934638926
 20
584.2531223781
 10
214.4366403469
 20
579.0314574455
 10
216.1597767339
 20
573.6575151202
 10
217.6569330457
 20
568.1498204946
 10
218.9229482742
 20
562.5273597331
 10
219.9534582028
 20
556.8095146226
 10
220.7449104501
 20
551.0159957599
 10
221.2945767164
 20
545.1667746045
 10
221.6005621882
 20
539.2820146336
 10
221.66181207
 20
533.3820018339
 10
221.478115221
 20
527.4870747718
 10
221.0501048822
 20
521.617554482
 10
220.3792564939
 20
515.7936744169
 10
219.4678826095
 20
510.0355106975
 10
218.3191249236
 20
504.3629129072
 10
216.9369434418
 20
498.7954356656
 10
215.3261028301
 20
493.3522712202
 10
213.4921559898
 20
488.0521832863
 10
211.4414249155
 20
482.9134423652
 10
209.1809789022
 20
477.9537627612
 10
206.7186101754
 20
473.1902415174
 10
204.0628070304
 20
468.6392994784
 10
201.2227245706
 20
464.3166246842
 10
198.2081531488
 20
460.2371182903
 10
195.0294846171
 20
456.4148432003
 10
191.6976765044
 20
452.8629755883
 10
188.2242142435
 20
449.5937594778
 10
184.6210715784
 20
446.6184645339
 10
180.9006692884
 20
443.9473472147
 10
177.0758323707
 20
441.5896154149
 10
173.1597458307
 20
439.5533967246
 10
169.1659092299
 20
437.8457104113
 10
165.1080901504
 20
436.4724432235
 10
161.0002767352
 20
435.4383290977
 10
156.8566294682
 20
434.7469328395
 10
152.6914323599
 20
434.4006378351
 10
150.6052380337
 20
434.357322961
  0
LWPOLYLINE
  5
C8
330
1F
100
AcDbEntity
  8
0
  6
Continuous
 62
     1
370
    25
100
AcDbPolyline
 90
       43
 70
   128
 43
0.0
 10
138.3518833342
 20
612.9579669866
 10
135.8136988823
 20
612.0740357831
 10
132.2374623119
 20
610.522702297
 10
128.7415433513
 20
608.6405033591
 10
125.3412287646
 20
606.4356693466
 10
122.0513872623
 20
603.9178414376
 10
118.8864044843
 20
601.0980294528
 10
115.860120095
 20
597.9885637127
 10
112.9857672659
 20
594.6030411197
 10
110.2759148107
 20
590.9562657028
 10
107.7424122246
 20
587.0641838829
 10
105.3963378699
 20
582.9438147436
 10
103.2479505328
 20
578.6131756108
 10
101.3066445644
 20
574.0912032674
 10
99.5809088018
 20
569.397671148
 10
98.0782894485
 20
564.5531028744
 10
96.8053570766
 20
559.578682511
 10
95.7676778953
 20
554.4961619322
 10
94.9697894118
 20
549.3277657075
 10
94.4151805893
 20
544.0960939185
 10
94.1062765913
 20
538.8240233348
 10
94.0444281761
 20
533.5346073796
 10
94.2299057912
 20
528.2509753232
 10
94.6618983903
 20
522.996231144
 10
95.3385169795
 20
517.7933525015
 10
96.256802878
 20
512.66509026
 10
97.4127406551
 20
507.6338690056
 10
98.8012756891
 20
502.7216889887
 10
100.4163362695
 20
497.9500299227
 10
102.2508601474
 20
493.3397570585
 10
104.2968254167
 20
488.9110299463
 10
106.5452855917
 20
484.6832142831
 10
108.9864087282
 20
480.6747972309
 10
111.6095204159
 20
476.9033065777
 10
114.4031504548
 20
473.3852340924
 10
117.3550830115
 20
470.135963411
 10
120.452410036
 20
467.1697027673
 10
123.6815877053
 20
464.4994228644
 10
127.0284956471
 20
462.136800157
 10
130.4784986846
 20
460.092165793
 10
134.0165108323
 20
458.3744604382
 10
137.6270612632
 20
456.9911951811
 10
138.3518833341
 20
456.7566789353
  0
INSERT
  5
D4
330
1F
100
AcDbEntity
  8
FORMAT
 62
     7
100
AcDbBlockReference
  2
SW_CENTERMARKSYMBOL_1
 10
121.0230229335
 20
534.857322961
 30
0.0
  0
LINE
  5
D5
330
1F
100
AcDbEntity
  8
0
  6
Continuous
 62
     7
370
    25
100
AcDbLine
 10
489.2722541949
 20
97.2259469269
 30
0.0
 11
489.2722541949
 21
-26.7160451219
 31
0.0
  0
LINE
  5
D6
330
1F
100
AcDbEntity
  8
0
  6
Continuous
 62
     7
370
    25
100
AcDbLine
 10
690.2722541949
 20
-9.7241498675
 30
0.0
 11
690.2722541949
 21
97.2259469269
 31
0.0
  0
LINE
  5
D7
330
1F
100
AcDbEntity
  8
0
  6
Continuous
 62
     7
370
    25
100
AcDbLine
 10
690.2722541949
 20
-26.7160451219
 30
0.0
 11
690.2722541949
 21
-23.626769395
 31
0.0
  0
LINE
  5
D8
330
1F
100
AcDbEntity
  8
0
  6
Continuous
 62
     7
370
    25
100
AcDbLine
 10
690.2722541949
 20
97.2259469269
 30
0.0
 11
690.2722541949
 21
168.6437318267
 31
0.0
  0
LINE
  5
D9
330
1F
100
AcDbEntity
  8
0
  6
Continuous
 62
     7
370
    25
100
AcDbLine
 10
489.2722541949
 20
168.6437318267
 30
0.0
 11
489.2722541949
 21
97.2259469269
 31
0.0
  0
LINE
  5
DA
330
1F
100
AcDbEntity
  8
0
  6
Continuous
 62
     7
370
    25
100
AcDbLine
 10
489.2722541949
 20
256.2839548781
 30
0.0
 11
489.2722541949
 21
168.6437318267
 31
0.0
  0
LINE
  5
DB
330
1F
100
AcDbEntity
  8
0
  6
Continuous
 62
     7
370
    25
100
AcDbLine
 10
690.2722541949
 20
256.2128870663
 30
0.0
 11
690.2722541949
 21
256.2839548781
 31
0.0
  0
LINE
  5
DC
330
1F
100
AcDbEntity
  8
0
  6
Continuous
 62
     7
370
    25
100
AcDbLine
 10
690.2722541949
 20
168.6437318267
 30
0.0
 11
690.2722541949
 21
244.3250643642
 31
0.0
  0
LINE
  5
DD
330
1F
100
AcDbEntity
  8
0
  6
Continuous
 62
     7
370
    25
100
AcDbLine
 10
690.2661107395
 20
-23.7160451219
 30
0.0
 11
705.2722541949
 21
-23.7160451219
 31
0.0
  0
LINE
  5
DE
330
1F
100
AcDbEntity
  8
0
  6
Continuous
 62
     7
370
    25
100
AcDbLine
 10
705.2722541949
 20
-9.7160451219
 30
0.0
 11
690.2717187591
 21
-9.7160451219
 31
0.0
  0
LINE
  5
DF
330
1F
100
AcDbEntity
  8
0
  6
Continuous
 62
     7
370
    25
100
AcDbLine
 10
690.2722541949
 20
242.2128870663
 30
0.0
 11
705.2722541949
 21
242.2128870663
 31
0.0
  0
LINE
  5
E0
330
1F
100
AcDbEntity
  8
0
  6
Continuous
 62
     7
370
    25
100
AcDbLine
 10
705.2722541949
 20
256.2128870663
 30
0.0
 11
690.1501703322
 21
256.2128870663
 31
0.0
  0
LINE
  5
E1
330
1F
100
AcDbEntity
  8
0
  6
Continuous
 62
     7
370
    25
100
AcDbLine
 10
489.2722541949
 20
-26.7160451219
 30
0.0
 11
690.2722541949
 21
-26.7160451219
 31
0.0
  0
SPLINE
  5
E2
330
1F
100
AcDbEntity
  8
0
  6
Continuous
 62
     7
370
    25
100
AcDbSpline
210
0.0
220
0.0
230
1.0
 70
     8
 71
     3
 72
    12
 73
     8
 74
     0
 42
0.00000001
 43
0.00000001
 40
0.0
 40
0.0
 40
0.0
 40
0.0
 40
0.2144832981507728
 40
0.4289539796801345
 40
0.6437519519336246
 40
0.8587641254522873
 40
1.0
 40
1.0
 40
1.0
 40
1.0
 10
690.028176713194
 20
-16.7160451218704
 30
0.0
 10
690.0336922050359
 20
-17.50168382709984
 30
0.0
 10
690.0447228642798
 20
-19.07291502367541
 30
0.0
 10
690.122211270727
 20
-21.17244868720747
 30
0.0
 10
690.2061427499821
 20
-22.74135220436219
 30
0.0
 10
690.2663864658048
 20
-23.63274831990882
 30
0.0
 10
690.2661764410867
 20
-23.62846681404793
 30
0.0
 10
690.2660931759997
 20
-23.6267693949942
 30
0.0
  0
SPLINE
  5
E3
330
1F
100
AcDbEntity
  8
0
  6
Continuous
 62
     7
370
    25
100
AcDbSpline
210
0.0
220
0.0
230
1.0
 70
     8
 71
     3
 72
    13
 73
     9
 74
     0
 42
0.00000001
 43
0.00000001
 40
0.0
 40
0.0
 40
0.0
 40
0.0
 40
0.0044994340643799
 40
0.2186958923507032
 40
0.4328891225135163
 40
0.6475320112950652
 40
0.8623791903397152
 40
1.0
 40
1.0
 40
1.0
 40
1.0
 10
690.2717045769315
 20
-9.72414986754288
 30
0.0
 10
690.2718874480438
 20
-9.721452755177445
 30
0.0
 10
690.280775935023
 20
-9.590359069373953
 30
0.0
 10
690.2480317130539
 20
-10.05833764938829
 30
0.0
 10
690.1786607762093
 20
-11.15549624088023
 30
0.0
 10
690.0915617973161
 20
-12.97080742718696
 30
0.0
 10
690.0363129558592
 20
-14.92373498299522
 30
0.0
 10
690.0304614344668
 20
-16.21275026327106
 30
0.0
 10
690.028176713194
 20
-16.7160451218704
 30
0.0
  0
LWPOLYLINE
  5
E4
330
1F
100
AcDbEntity
  8
0
  6
Continuous
 62
     7
370
    25
100
AcDbPolyline
 90
       56
 70
   128
 43
0.0
 10
489.2722541949
 20
256.2839548781
 10
489.3155690691
 20
258.3701492043
 10
489.6618640734
 20
262.5353463127
 10
490.3532603316
 20
266.6789935797
 10
491.3873744574
 20
270.7868069948
 10
492.7606416452
 20
274.8446260743
 10
494.4683279585
 20
278.8384626751
 10
496.5045466489
 20
282.7545492152
 10
498.8622784486
 20
286.5793861328
 10
501.5333957678
 20
290.2997884229
 10
504.5086907117
 20
293.9029310879
 10
507.7779068222
 20
297.3763933488
 10
511.3297744342
 20
300.7082014615
 10
515.1520495242
 20
303.8868699932
 10
519.2315559182
 20
306.9014414151
 10
523.5542307124
 20
309.7415238748
 10
528.1051727513
 20
312.3973270199
 10
532.8686939951
 20
314.8596957466
 10
537.8283735991
 20
317.12014176
 10
542.9671145202
 20
319.1708728342
 10
548.2672024541
 20
321.0048196746
 10
553.7103668996
 20
322.6156602863
 10
559.2778441411
 20
323.997841768
 10
564.9504419315
 20
325.146599454
 10
570.7086056508
 20
326.0579733384
 10
576.5324857159
 20
326.7288217267
 10
582.4020060057
 20
327.1568320655
 10
588.2969330678
 20
327.3405289145
 10
594.1969458675
 20
327.2792790326
 10
600.0817058384
 20
326.9732935609
 10
605.9309269938
 20
326.4236272946
 10
611.7244458565
 20
325.6321750473
 10
617.442290967
 20
324.6016651187
 10
623.0647517285
 20
323.3356498902
 10
628.5724463541
 20
321.8384935784
 10
633.9463886795
 20
320.1153571913
 10
639.168053612
 20
318.1721807371
 10
644.2194409911
 20
316.0156627475
 10
649.083137638
 20
313.6532371867
 10
653.7423773826
 20
311.0930478251
 10
658.1810988606
 20
308.3439201658
 10
662.3840008792
 20
305.4153310213
 10
666.3365951647
 20
302.3173758452
 10
670.0252563057
 20
299.0607339306
 10
673.4372687231
 20
295.6566315969
 10
676.5608705032
 20
292.11680349
 10
679.3852939436
 20
288.4534521308
 10
681.9008026717
 20
284.6792058503
 10
684.0987252077
 20
280.8070752573
 10
685.9714848573
 20
276.8504083881
 10
687.51262583
 20
272.8228446931
 10
688.7168354937
 20
268.7382680187
 10
689.5799626881
 20
264.6107587468
 10
690.099032035
 20
260.454545257
 10
690.2722541949
 20
256.2839548781
 10
690.2722541949
 20
256.2839548781
  0
SPLINE
  5
E5
330
1F
100
AcDbEntity
  8
0
  6
Continuous
 62
     7
370
    25
100
AcDbSpline
210
0.0
220
0.0
230
1.0
 70
     8
 71
     3
 72
    10
 73
     6
 74
     0
 42
0.00000001
 43
0.00000001
 40
0.0
 40
0.0
 40
0.0
 40
0.0
 40
0.4292547610299159
 40
0.8585347483251933
 40
1.0
 40
1.0
 40
1.0
 40
1.0
 10
690.1502896408787
 20
249.2128870662641
 30
0.0
 10
690.1769547495413
 20
248.4338559841563
 30
0.0
 10
690.2302865339108
 20
246.8757480381658
 30
0.0
 10
690.2746660466133
 20
245.1575411862281
 30
0.0
 10
690.2678916297276
 20
244.4904314949865
 30
0.0
 10
690.2662125187612
 20
244.325081293316
 30
0.0
  0
SPLINE
  5
E6
330
1F
100
AcDbEntity
  8
0
  6
Continuous
 62
     7
370
    25
100
AcDbSpline
210
0.0
220
0.0
230
1.0
 70
     8
 71
     3
 72
    13
 73
     9
 74
     0
 42
0.00000001
 43
0.00000001
 40
0.0
 40
0.0
 40
0.0
 40
0.0
 40
0.0039245624967713
 40
0.2187222843127006
 40
0.4335247202151501
 40
0.6478741171856061
 40
0.8620206537552614
 40
1.0
 40
1.0
 40
1.0
 40
1.0
 10
690.1501703322006
 20
256.2058174518523
 30
0.0
 10
690.149704321912
 20
256.2081682492859
 30
0.0
 10
690.1237328066358
 20
256.3391820336365
 30
0.0
 10
690.0658669480642
 20
255.8709920763822
 30
0.0
 10
690.0216508171393
 20
254.7712029153276
 30
0.0
 10
690.0325154525088
 20
252.9543384858701
 30
0.0
 10
690.0878297834751
 20
251.0039534201196
 30
0.0
 10
690.1327053145338
 20
249.7171260540023
 30
0.0
 10
690.1502896408787
 20
249.2128870662641
 30
0.0
  0
LINE
  5
E7
330
1F
100
AcDbEntity
  8
0
  6
Continuous
 62
     7
370
    25
100
AcDbLine
 10
705.2722541949
 20
-16.7160451219
 30
0.0
 11
705.2722541949
 21
-9.7160451219
 31
0.0
  0
LINE
  5
E8
330
1F
100
AcDbEntity
  8
0
  6
Continuous
 62
     7
370
    25
100
AcDbLine
 10
705.2722541949
 20
-23.7160451219
 30
0.0
 11
705.2722541949
 21
-16.7160451219
 31
0.0
  0
LINE
  5
E9
330
1F
100
AcDbEntity
  8
0
  6
Continuous
 62
     7
370
    25
100
AcDbLine
 10
705.2722541949
 20
249.2128870663
 30
0.0
 11
705.2722541949
 21
256.2128870663
 31
0.0
  0
LINE
  5
EA
330
1F
100
AcDbEntity
  8
0
  6
Continuous
 62
     7
370
    25
100
AcDbLine
 10
705.2722541949
 20
242.2128870663
 30
0.0
 11
705.2722541949
 21
249.2128870663
 31
0.0
  0
LINE
  5
EB
330
1F
100
AcDbEntity
  8
0
  6
Continuous
 62
     1
370
    25
100
AcDbLine
 10
489.2722541949
 20
97.2259469269
 30
0.0
 11
690.2722541949
 21
97.2259469269
 31
0.0
  0
LWPOLYLINE
  5
EC
330
1F
100
AcDbEntity
  8
0
  6
Continuous
 62
     1
370
    25
100
AcDbPolyline
 90
       56
 70
   128
 43
0.0
 10
489.2722541949
 20
168.6437318267
 10
489.3155690691
 20
170.7299261529
 10
489.6618640734
 20
174.8951232612
 10
490.3532603316
 20
179.0387705283
 10
491.3873744574
 20
183.1465839434
 10
492.7606416452
 20
187.2044030229
 10
494.4683279585
 20
191.1982396237
 10
496.5045466489
 20
195.1143261637
 10
498.8622784486
 20
198.9391630814
 10
501.5333957678
 20
202.6595653715
 10
504.5086907117
 20
206.2627080365
 10
507.7779068222
 20
209.7361702974
 10
511.3297744342
 20
213.0679784101
 10
515.1520495242
 20
216.2466469418
 10
519.2315559182
 20
219.2612183636
 10
523.5542307124
 20
222.1013008234
 10
528.1051727513
 20
224.7571039684
 10
532.8686939951
 20
227.2194726952
 10
537.8283735991
 20
229.4799187086
 10
542.9671145202
 20
231.5306497828
 10
548.2672024541
 20
233.3645966231
 10
553.7103668996
 20
234.9754372348
 10
559.2778441411
 20
236.3576187166
 10
564.9504419315
 20
237.5063764026
 10
570.7086056508
 20
238.417750287
 10
576.5324857159
 20
239.0885986753
 10
582.4020060057
 20
239.5166090141
 10
588.2969330678
 20
239.7003058631
 10
594.1969458675
 20
239.6390559812
 10
600.0817058384
 20
239.3330705095
 10
605.9309269938
 20
238.7834042432
 10
611.7244458565
 20
237.9919519958
 10
617.442290967
 20
236.9614420673
 10
623.0647517285
 20
235.6954268387
 10
628.5724463541
 20
234.198270527
 10
633.9463886795
 20
232.4751341399
 10
639.168053612
 20
230.5319576857
 10
644.2194409911
 20
228.375439696
 10
649.083137638
 20
226.0130141353
 10
653.7423773826
 20
223.4528247737
 10
658.1810988606
 20
220.7036971144
 10
662.3840008792
 20
217.7751079699
 10
666.3365951647
 20
214.6771527937
 10
670.0252563057
 20
211.4205108791
 10
673.4372687231
 20
208.0164085454
 10
676.5608705032
 20
204.4765804386
 10
679.3852939436
 20
200.8132290794
 10
681.9008026717
 20
197.0389827989
 10
684.0987252077
 20
193.1668522059
 10
685.9714848573
 20
189.2101853367
 10
687.51262583
 20
185.1826216417
 10
688.7168354937
 20
181.0980449672
 10
689.5799626881
 20
176.9705356954
 10
690.099032035
 20
172.8143222055
 10
690.2722541949
 20
168.6437318267
 10
690.2722541949
 20
168.6437318267
  0
INSERT
  5
F8
330
1F
100
AcDbEntity
  8
FORMAT
 62
     7
100
AcDbBlockReference
  2
SW_CENTERMARKSYMBOL_2
 10
589.7722541949
 20
178.2839548781
 30
0.0
  0
LINE
  5
F9
330
1F
100
AcDbEntity
  8
0
  6
Continuous
 62
     7
370
    25
100
AcDbLine
 10
238.2454610851
 20
-218.0179905732
 30
0.0
 11
150.6052380337
 21
-218.0179905732
 31
0.0
  0
LINE
  5
FA
330
1F
100
AcDbEntity
  8
0
  6
Continuous
 62
     7
370
    25
100
AcDbLine
 10
236.0601313453
 20
-419.0179905732
 30
0.0
 11
238.2454610851
 21
-419.0179905732
 31
0.0
  0
LINE
  5
FB
330
1F
100
AcDbEntity
  8
0
  6
Continuous
 62
     7
370
    25
100
AcDbLine
 10
150.6052380337
 20
-419.0179905732
 30
0.0
 11
224.1743932732
 21
-419.0179905732
 31
0.0
  0
LINE
  5
FC
330
1F
100
AcDbEntity
  8
0
  6
Continuous
 62
     7
370
    25
100
AcDbLine
 10
224.1743932732
 20
-418.8960260192
 30
0.0
 11
224.1743932732
 21
-434.0179905732
 31
0.0
  0
LINE
  5
FD
330
1F
100
AcDbEntity
  8
0
  6
Continuous
 62
     7
370
    25
100
AcDbLine
 10
238.1743932732
 20
-434.0179905732
 30
0.0
 11
238.1743932732
 21
-419.0179905732
 31
0.0
  0
LINE
  5
FE
330
1F
100
AcDbEntity
  8
0
  6
Continuous
 62
     7
370
    25
100
AcDbLine
 10
121.0230229335
 20
-419.0179905732
 30
0.0
 11
150.6052380337
 21
-419.0179905732
 31
0.0
  0
LINE
  5
FF
330
1F
100
AcDbEntity
  8
0
  6
Continuous
 62
     7
370
    25
100
AcDbLine
 10
150.6052380337
 20
-218.0179905732
 30
0.0
 11
121.0230229335
 21
-218.0179905732
 31
0.0
  0
LINE
  5
100
330
1F
100
AcDbEntity
  8
0
  6
Continuous
 62
     7
370
    25
100
AcDbLine
 10
114.0230229335
 20
-418.7739130915
 30
0.0
 11
114.0230229335
 21
-434.0179905732
 31
0.0
  0
LINE
  5
101
330
1F
100
AcDbEntity
  8
0
  6
Continuous
 62
     7
370
    25
100
AcDbLine
 10
128.0230229335
 20
-434.0179905732
 30
0.0
 11
128.0230229335
 21
-419.0179905732
 31
0.0
  0
LWPOLYLINE
  5
102
330
1F
100
AcDbEntity
  8
0
  6
Continuous
 62
     7
370
    25
100
AcDbPolyline
 90
      108
 70
   128
 43
0.0
 10
238.2454610851
 20
-419.0179905732
 10
242.4160514639
 20
-418.8447684133
 10
246.5722649538
 20
-418.3256990664
 10
250.6997742256
 20
-417.462571872
 10
254.7843509001
 20
-416.2583622083
 10
258.8119145951
 20
-414.7172212356
 10
262.7685814643
 20
-412.844461586
 10
266.6407120573
 20
-410.64653905
 10
270.4149583378
 20
-408.1310303219
 10
274.078309697
 20
-405.3066068815
 10
277.6181378038
 20
-402.1830051014
 10
281.0222401375
 20
-398.770992684
 10
284.2788820521
 20
-395.082331543
 10
287.3768372283
 20
-391.1297372575
 10
290.3054263728
 20
-386.9268352388
 10
293.0545540321
 20
-382.4881137609
 10
295.6147433937
 20
-377.8288740163
 10
297.9771689544
 20
-372.9651773694
 10
300.1336869441
 20
-367.9137899903
 10
302.0768633983
 20
-362.6921250578
 10
303.7999997853
 20
-357.3181827324
 10
305.2971560971
 20
-351.8104881068
 10
306.5631713257
 20
-346.1880273453
 10
307.5936812542
 20
-340.4701822348
 10
308.3851335016
 20
-334.6766633721
 10
308.9347997679
 20
-328.8274422167
 10
309.2407852396
 20
-322.9426822458
 10
309.3020351215
 20
-317.0426694461
 10
309.1183382725
 20
-311.147742384
 10
308.6903279337
 20
-305.2782220942
 10
308.0194795454
 20
-299.4543420291
 10
307.108105661
 20
-293.6961783098
 10
305.959347975
 20
-288.0235805194
 10
304.5771664932
 20
-282.4561032778
 10
302.9663258815
 20
-277.0129388324
 10
301.1323790412
 20
-271.7128508985
 10
299.081647967
 20
-266.5741099774
 10
296.8212019536
 20
-261.6144303734
 10
294.3588332268
 20
-256.8509091296
 10
291.7030300818
 20
-252.2999670907
 10
288.862947622
 20
-247.9772922965
 10
285.8483762002
 20
-243.8977859025
 10
282.6697076685
 20
-240.0755108125
 10
279.3378995558
 20
-236.5236432005
 10
275.8644372949
 20
-233.25442709
 10
272.2612946298
 20
-230.2791321461
 10
268.5408923398
 20
-227.6080148269
 10
264.7160554221
 20
-225.2502830272
 10
260.7999688821
 20
-223.2140643368
 10
256.8061322813
 20
-221.5063780235
 10
252.7483132018
 20
-220.1331108357
 10
248.6404997866
 20
-219.0989967099
 10
244.4968525196
 20
-218.4076004517
 10
240.3316554113
 20
-218.0613054474
 10
236.1592667589
 20
-218.0613054474
 10
231.9940696506
 20
-218.4076004517
 10
227.8504223836
 20
-219.0989967099
 10
223.7426089684
 20
-220.1331108357
 10
219.6847898889
 20
-221.5063780235
 10
215.6909532881
 20
-223.2140643368
 10
211.7748667481
 20
-225.2502830272
 10
207.9500298304
 20
-227.6080148269
 10
204.2296275404
 20
-230.2791321461
 10
200.6264848753
 20
-233.25442709
 10
197.1530226144
 20
-236.5236432005
 10
193.8212145017
 20
-240.0755108125
 10
190.64254597
 20
-243.8977859025
 10
187.6279745482
 20
-247.9772922965
 10
184.7878920884
 20
-252.2999670907
 10
182.1320889434
 20
-256.8509091296
 10
179.6697202166
 20
-261.6144303734
 10
177.4092742032
 20
-266.5741099774
 10
175.358543129
 20
-271.7128508985
 10
173.5245962887
 20
-277.0129388324
 10
171.913755677
 20
-282.4561032778
 10
170.5315741952
 20
-288.0235805194
 10
169.3828165092
 20
-293.6961783098
 10
168.4714426248
 20
-299.4543420291
 10
167.8005942365
 20
-305.2782220942
 10
167.3725838977
 20
-311.147742384
 10
167.1888870487
 20
-317.0426694461
 10
167.2501369306
 20
-322.9426822458
 10
167.5561224024
 20
-328.8274422167
 10
168.1057886686
 20
-334.6766633721
 10
168.897240916
 20
-340.4701822348
 10
169.9277508445
 20
-346.1880273453
 10
171.1937660731
 20
-351.8104881068
 10
172.6909223849
 20
-357.3181827324
 10
174.4140587719
 20
-362.6921250578
 10
176.3572352261
 20
-367.9137899903
 10
178.5137532158
 20
-372.9651773694
 10
180.8761787765
 20
-377.8288740163
 10
183.4363681381
 20
-382.4881137609
 10
186.1854957974
 20
-386.9268352388
 10
189.1140849419
 20
-391.1297372575
 10
192.2120401181
 20
-395.082331543
 10
195.4686820327
 20
-398.770992684
 10
198.8727843664
 20
-402.1830051014
 10
202.4126124732
 20
-405.3066068815
 10
206.0759638324
 20
-408.1310303219
 10
209.8502101129
 20
-410.64653905
 10
213.7223407059
 20
-412.844461586
 10
217.6790075751
 20
-414.7172212356
 10
221.7065712701
 20
-416.2583622083
 10
225.7911479446
 20
-417.462571872
 10
229.9186572164
 20
-418.3256990664
 10
234.0748707063
 20
-418.8447684133
 10
238.2454610851
 20
-419.0179905732
  0
LWPOLYLINE
  5
103
330
1F
100
AcDbEntity
  8
0
  6
Continuous
 62
     7
370
    25
100
AcDbPolyline
 90
       96
 70
   128
 43
0.0
 10
238.2454610851
 20
-398.5179905732
 10
234.5068130572
 20
-398.3430807507
 10
230.7845131858
 20
-397.8191161193
 10
227.0948381412
 20
-396.9483878432
 10
223.4539219337
 20
-395.7347033954
 10
219.8776853633
 20
-394.1833699092
 10
216.3817664027
 20
-392.3011709714
 10
212.981451816
 20
-390.0963369588
 10
209.6916103138
 20
-387.5785090498
 10
206.5266275358
 20
-384.758697065
 10
203.5003431464
 20
-381.6492313249
 10
200.6259903173
 20
-378.2637087319
 10
197.9161378621
 20
-374.616933315
 10
195.382635276
 20
-370.7248514951
 10
193.0365609213
 20
-366.6044823558
 10
190.8881735842
 20
-362.273843223
 10
188.9468676158
 20
-357.7518708796
 10
187.2211318533
 20
-353.0583387602
 10
185.7185125
 20
-348.2137704866
 10
184.445580128
 20
-343.2393501232
 10
183.4079009467
 20
-338.1568295444
 10
182.6100124632
 20
-332.9884333197
 10
182.0554036408
 20
-327.7567615307
 10
181.7464996427
 20
-322.484690947
 10
181.6846512275
 20
-317.1952749919
 10
181.8701288427
 20
-311.9116429354
 10
182.3021214417
 20
-306.6568987562
 10
182.9787400309
 20
-301.4540201137
 10
183.8970259294
 20
-296.3257578722
 10
185.0529637065
 20
-291.2945366178
 10
186.4414987405
 20
-286.3823566009
 10
188.0565593209
 20
-281.6106975349
 10
189.8910831989
 20
-277.0004246707
 10
191.9370484681
 20
-272.5716975585
 10
194.1855086431
 20
-268.3438818953
 10
196.6266317797
 20
-264.3354648431
 10
199.2497434674
 20
-260.5639741899
 10
202.0433735062
 20
-257.0459017046
 10
204.9953060629
 20
-253.7966310232
 10
208.0926330874
 20
-250.8303703795
 10
211.3218107567
 20
-248.1600904766
 10
214.6687186986
 20
-245.7974677692
 10
218.118721736
 20
-243.7528334052
 10
221.6567338837
 20
-242.0351280504
 10
225.2672843146
 20
-240.6518627933
 10
228.9345850104
 20
-239.6090863009
 10
232.6425997982
 20
-238.9113583696
 10
236.3751144728
 20
-238.5617299859
 10
240.1158076974
 20
-238.5617299859
 10
243.848322372
 20
-238.9113583696
 10
247.5563371598
 20
-239.6090863009
 10
251.2236378556
 20
-240.6518627933
 10
254.8341882865
 20
-242.0351280504
 10
258.3722004342
 20
-243.7528334052
 10
261.8222034716
 20
-245.7974677692
 10
265.1691114135
 20
-248.1600904766
 10
268.3982890828
 20
-250.8303703795
 10
271.4956161073
 20
-253.7966310232
 10
274.447548664
 20
-257.0459017046
 10
277.2411787028
 20
-260.5639741899
 10
279.8642903905
 20
-264.3354648431
 10
282.3054135271
 20
-268.3438818953
 10
284.5538737021
 20
-272.5716975585
 10
286.5998389713
 20
-277.0004246707
 10
288.4343628493
 20
-281.6106975349
 10
290.0494234297
 20
-286.3823566009
 10
291.4379584637
 20
-291.2945366178
 10
292.5938962408
 20
-296.3257578722
 10
293.5121821393
 20
-301.4540201137
 10
294.1888007285
 20
-306.6568987562
 10
294.6207933275
 20
-311.9116429354
 10
294.8062709427
 20
-317.1952749919
 10
294.7444225275
 20
-322.484690947
 10
294.4355185294
 20
-327.7567615307
 10
293.880909707
 20
-332.9884333197
 10
293.0830212235
 20
-338.1568295444
 10
292.0453420422
 20
-343.2393501232
 10
290.7724096702
 20
-348.2137704866
 10
289.2697903169
 20
-353.0583387602
 10
287.5440545544
 20
-357.7518708796
 10
285.602748586
 20
-362.273843223
 10
283.4543612489
 20
-366.6044823558
 10
281.1082868942
 20
-370.7248514951
 10
278.5747843081
 20
-374.616933315
 10
275.8649318529
 20
-378.2637087319
 10
272.9905790238
 20
-381.6492313249
 10
269.9642946344
 20
-384.758697065
 10
266.7993118564
 20
-387.5785090498
 10
263.5094703542
 20
-390.0963369588
 10
260.1091557675
 20
-392.3011709714
 10
256.6132368069
 20
-394.1833699092
 10
253.0370002365
 20
-395.7347033954
 10
249.396084029
 20
-396.9483878432
 10
245.7064089844
 20
-397.8191161193
 10
241.984109113
 20
-398.3430807507
 10
238.2454610851
 20
-398.5179905732
  0
SPLINE
  5
104
330
1F
100
AcDbEntity
  8
0
  6
Continuous
 62
     7
370
    25
100
AcDbSpline
210
0.0
220
0.0
230
1.0
 70
     8
 71
     3
 72
    15
 73
    11
 74
     0
 42
0.00000001
 43
0.00000001
 40
0.0
 40
0.0
 40
0.0
 40
0.0
 40
0.0503765580554553
 40
0.1931294665614735
 40
0.3360129121144523
 40
0.4791977638065175
 40
0.6223857579238076
 40
0.7652717548330276
 40
0.9080225243471092
 40
1.0
 40
1.0
 40
1.0
 40
1.0
 10
236.0601161095284
 20
-419.0117417861239
 30
0.0
 10
235.8822672253931
 20
-419.0134305809265
 30
0.0
 10
235.2004449364667
 20
-419.019904942256
 30
0.0
 10
233.4643428532641
 20
-418.9744922488973
 30
0.0
 10
231.134728014889
 20
-418.8949574370274
 30
0.0
 10
228.7695544604849
 20
-418.8123002476249
 30
0.0
 10
226.6814628683822
 20
-418.7672007556982
 30
0.0
 10
225.110400955249
 20
-418.778302177611
 30
0.0
 10
224.2895234097639
 20
-418.8335586397192
 30
0.0
 10
224.2068058655307
 20
-418.8784395751458
 30
0.0
 10
224.1743932732354
 20
-418.8960260191741
 30
0.0
  0
LINE
  5
105
330
1F
100
AcDbEntity
  8
0
  6
Continuous
 62
     7
370
    25
100
AcDbLine
 10
224.1743932732
 20
-434.0179905732
 30
0.0
 11
238.1743932732
 21
-434.0179905732
 31
0.0
  0
ARC
  5
106
330
1F
100
AcDbEntity
  8
0
  6
Continuous
 62
     7
370
    25
100
AcDbCircle
 10
121.0230229335
 20
-318.5179905732
 30
0.0
 40
100.5000000000001
100
AcDbArc
 50
90.0
 51
270.0
  0
ARC
  5
107
330
1F
100
AcDbEntity
  8
0
  6
Continuous
 62
     7
370
    25
100
AcDbCircle
 10
121.0230229335
 20
-318.5179905732
 30
0.0
 40
80.0
100
AcDbArc
 50
329.1308657731
 51
30.8691342269
  0
LINE
  5
108
330
1F
100
AcDbEntity
  8
0
  6
Continuous
 62
     7
370
    25
100
AcDbLine
 10
114.0230229335
 20
-434.0179905732
 30
0.0
 11
128.0230229335
 21
-434.0179905732
 31
0.0
  0
LWPOLYLINE
  5
109
330
1F
100
AcDbEntity
  8
0
  6
Continuous
 62
     1
370
    25
100
AcDbPolyline
 90
       56
 70
   128
 43
0.0
 10
150.6052380337
 20
-218.0179905732
 10
148.5190437075
 20
-218.0613054474
 10
144.3538465991
 20
-218.4076004517
 10
140.2101993321
 20
-219.0989967099
 10
136.102385917
 20
-220.1331108357
 10
132.0445668375
 20
-221.5063780235
 10
128.0507302367
 20
-223.2140643368
 10
124.1346436966
 20
-225.2502830272
 10
120.309806779
 20
-227.6080148269
 10
116.5894044889
 20
-230.2791321461
 10
112.9862618239
 20
-233.25442709
 10
109.512799563
 20
-236.5236432005
 10
106.1809914503
 20
-240.0755108125
 10
103.0023229186
 20
-243.8977859025
 10
99.9877514967
 20
-247.9772922965
 10
97.147669037
 20
-252.2999670907
 10
94.4918658919
 20
-256.8509091296
 10
92.0294971652
 20
-261.6144303734
 10
89.7690511518
 20
-266.5741099774
 10
87.7183200776
 20
-271.7128508985
 10
85.8843732372
 20
-277.0129388324
 10
84.2735326256
 20
-282.4561032778
 10
82.8913511438
 20
-288.0235805194
 10
81.7425934578
 20
-293.6961783098
 10
80.8312195734
 20
-299.4543420291
 10
80.1603711851
 20
-305.2782220942
 10
79.7323608463
 20
-311.147742384
 10
79.5486639973
 20
-317.0426694461
 10
79.6099138792
 20
-322.9426822458
 10
79.9158993509
 20
-328.8274422167
 10
80.4655656172
 20
-334.6766633721
 10
81.2570178646
 20
-340.4701822348
 10
82.2875277931
 20
-346.1880273453
 10
83.5535430216
 20
-351.8104881068
 10
85.0506993334
 20
-357.3181827324
 10
86.7738357205
 20
-362.6921250578
 10
88.7170121747
 20
-367.9137899903
 10
90.8735301643
 20
-372.9651773694
 10
93.2359557251
 20
-377.8288740163
 10
95.7961450867
 20
-382.4881137609
 10
98.545272746
 20
-386.9268352388
 10
101.4738618905
 20
-391.1297372575
 10
104.5718170666
 20
-395.082331543
 10
107.8284589812
 20
-398.770992684
 10
111.2325613149
 20
-402.1830051014
 10
114.7723894218
 20
-405.3066068815
 10
118.435740781
 20
-408.1310303219
 10
122.2099870615
 20
-410.64653905
 10
126.0821176545
 20
-412.844461586
 10
130.0387845237
 20
-414.7172212356
 10
134.0663482187
 20
-416.2583622083
 10
138.1509248931
 20
-417.462571872
 10
142.278434165
 20
-418.3256990664
 10
146.4346476548
 20
-418.8447684133
 10
150.6052380337
 20
-419.0179905732
 10
150.6052380337
 20
-419.0179905732
  0
LWPOLYLINE
  5
10A
330
1F
100
AcDbEntity
  8
0
  6
Continuous
 62
     1
370
    25
100
AcDbPolyline
 90
       23
 70
   128
 43
0.0
 10
194.4253495594
 20
-267.9255439853
 10
194.6651904757
 20
-268.3438818953
 10
196.9136506507
 20
-272.5716975585
 10
198.9596159199
 20
-277.0004246707
 10
200.7941397978
 20
-281.6106975349
 10
202.4092003783
 20
-286.3823566009
 10
203.7977354123
 20
-291.2945366178
 10
204.9536731894
 20
-296.3257578722
 10
205.8719590878
 20
-301.4540201137
 10
206.5485776771
 20
-306.6568987562
 10
206.9805702761
 20
-311.9116429354
 10
207.1660478913
 20
-317.1952749919
 10
207.1041994761
 20
-322.484690947
 10
206.795295478
 20
-327.7567615307
 10
206.2406866556
 20
-332.9884333197
 10
205.4427981721
 20
-338.1568295444
 10
204.4051189908
 20
-343.2393501232
 10
203.1321866188
 20
-348.2137704866
 10
201.6295672655
 20
-353.0583387602
 10
199.903831503
 20
-357.7518708796
 10
197.9625255346
 20
-362.273843223
 10
195.8141381975
 20
-366.6044823558
 10
194.4253495594
 20
-369.1104371611
  0
INSERT
  5
116
330
1F
100
AcDbEntity
  8
FORMAT
 62
     7
100
AcDbBlockReference
  2
SW_CENTERMARKSYMBOL_3
 10
121.0230229335
 20
-318.5179905732
 30
0.0
  0
LINE
  5
117
330
1F
100
AcDbEntity
  8
0
  6
Continuous
 62
     7
370
    25
100
AcDbLine
 10
435.054008157
 20
-324.2344534984
 30
0.0
 11
435.054008157
 21
-425.4381483127
 31
0.0
  0
LINE
  5
118
330
1F
100
AcDbEntity
  8
0
  6
Continuous
 62
     7
370
    25
100
AcDbLine
 10
636.054008157
 20
-425.4381483127
 30
0.0
 11
636.054008157
 21
-324.2344534984
 31
0.0
  0
LINE
  5
119
330
1F
100
AcDbEntity
  8
0
  6
Continuous
 62
     7
370
    25
100
AcDbLine
 10
531.4072360648
 20
-96.2564237411
 30
0.0
 11
469.4362400404
 21
-203.5933371359
 31
0.0
  0
LINE
  5
11A
330
1F
100
AcDbEntity
  8
0
  6
Continuous
 62
     7
370
    25
100
AcDbLine
 10
643.5073460733
 20
-304.0933373571
 30
0.0
 11
705.4783420977
 21
-196.7564239623
 31
0.0
  0
LINE
  5
11B
330
1F
100
AcDbEntity
  8
0
  6
Continuous
 62
     7
370
    25
100
AcDbLine
 10
468.0753889149
 20
-370.2354776491
 30
0.0
 11
457.3828904942
 21
-364.0628296994
 31
0.0
  0
LINE
  5
11C
330
1F
100
AcDbEntity
  8
0
  6
Continuous
 62
     7
370
    25
100
AcDbLine
 10
450.3834593658
 20
-376.1875137727
 30
0.0
 11
461.0766600477
 21
-382.3605671292
 31
0.0
  0
SPLINE
  5
11D
330
1F
100
AcDbEntity
  8
0
  6
Continuous
 62
     7
370
    25
100
AcDbSpline
210
0.0
220
0.0
230
1.0
 70
     8
 71
     3
 72
    21
 73
    17
 74
     0
 42
0.00000001
 43
0.00000001
 40
0.0
 40
0.0
 40
0.0
 40
0.0
 40
0.0684074988969519
 40
0.1454079680935639
 40
0.2203345365565838
 40
0.2937829236776269
 40
0.3662885488362082
 40
0.4383116211072081
 40
0.5102297145500033
 40
0.582333012566587
 40
0.6547644553419393
 40
0.7276528348492795
 40
0.8010606397152298
 40
0.8749795584380619
 40
0.9493437167571936
 40
1.0
 40
1.0
 40
1.0
 40
1.0
 10
636.0540929586472
 20
-324.2983148869276
 30
0.0
 10
636.0543192309447
 20
-324.2856047006999
 30
0.0
 10
636.0548001986099
 20
-324.2585877452015
 30
0.0
 10
636.0849659017739
 20
-323.8640889878429
 30
0.0
 10
636.1660959499319
 20
-323.2012867099344
 30
0.0
 10
636.3167864587053
 20
-322.270131413248
 30
0.0
 10
636.5533204110881
 20
-321.0958210334148
 30
0.0
 10
636.8901706000065
 20
-319.6938067140765
 30
0.0
 10
637.3392386431178
 20
-318.0848674224111
 30
0.0
 10
637.9094932429714
 20
-316.2923515721706
 30
0.0
 10
638.6064795683953
 20
-314.3430852189322
 30
0.0
 10
639.4321137140968
 20
-312.2670082164767
 30
0.0
 10
640.3840439427856
 20
-310.0958828365159
 30
0.0
 10
641.4574932406297
 20
-307.8650370419138
 30
0.0
 10
642.509225832761
 20
-305.8503026254392
 30
0.0
 10
643.2195386721461
 20
-304.5999572885885
 30
0.0
 10
643.5073460733466
 20
-304.0933373571315
 30
0.0
  0
SPLINE
  5
11E
330
1F
100
AcDbEntity
  8
0
  6
Continuous
 62
     7
370
    25
100
AcDbSpline
210
0.0
220
0.0
230
1.0
 70
     8
 71
     3
 72
    24
 73
    20
 74
     0
 42
0.00000001
 43
0.00000001
 40
0.0
 40
0.0
 40
0.0
 40
0.0
 40
0.035796372932561
 40
0.0973767089239169
 40
0.1590287037267981
 40
0.220789197705325
 40
0.2826972615333962
 40
0.3447896470337111
 40
0.4070992882700807
 40
0.4696534710657529
 40
0.532471603759496
 40
0.5955625721139763
 40
0.6589217512066468
 40
0.7225278890731175
 40
0.7863402696272082
 40
0.8502967750147237
 40
0.914286892155941
 40
0.9781963918607331
 40
1.0
 40
1.0
 40
1.0
 40
1.0
 10
469.436240040394
 20
-203.5933371359145
 30
0.0
 10
468.6688746018781
 20
-204.938111929447
 30
0.0
 10
466.581413922959
 20
-208.5962966255541
 30
0.0
 10
463.338573873373
 20
-214.6615702574109
 30
0.0
 10
459.7662518451793
 20
-221.8101646011846
 30
0.0
 10
456.4077473313331
 20
-229.062414735082
 30
0.0
 10
453.26450829374
 20
-236.410671712157
 30
0.0
 10
450.3431523557754
 20
-243.8501700668745
 30
0.0
 10
447.6497153592712
 20
-251.3752059073194
 30
0.0
 10
445.1912742029363
 20
-258.9798496661912
 30
0.0
 10
442.9755440339998
 20
-266.65740761701
 30
0.0
 10
441.0109640657438
 20
-274.4001515531922
 30
0.0
 10
439.3066202692037
 20
-282.1989112760938
 30
0.0
 10
437.8719686074498
 20
-290.0426901107566
 30
0.0
 10
436.7170323608627
 20
-297.9182392593115
 30
0.0
 10
435.8504090750268
 20
-305.8088924787994
 30
0.0
 10
435.2850170221469
 20
-313.6944105662108
 30
0.0
 10
435.072626899584
 20
-319.8353552597235
 30
0.0
 10
435.0577839026235
 20
-323.3423483659017
 30
0.0
 10
435.0540081570289
 20
-324.2344534984483
 30
0.0
  0
LINE
  5
11F
330
1F
100
AcDbEntity
  8
0
  6
Continuous
 62
     7
370
    25
100
AcDbLine
 10
545.882679296
 20
-108.0823718303
 30
0.0
 11
535.2716714184
 21
-101.9567673697
 31
0.0
  0
LINE
  5
120
330
1F
100
AcDbEntity
  8
0
  6
Continuous
 62
     7
370
    25
100
AcDbLine
 10
528.27224029
 20
-114.081451443
 30
0.0
 11
538.8831016366
 21
-120.2069713131
 31
0.0
  0
LWPOLYLINE
  5
121
330
1F
100
AcDbEntity
  8
0
  6
Continuous
 62
     7
370
    25
100
AcDbPolyline
 90
      108
 70
   128
 43
0.0
 10
464.4897766478
 20
-384.4136406936
 10
468.7828535905
 20
-382.076720104
 10
473.3061045354
 20
-379.8892753402
 10
478.0439368995
 20
-377.8588469775
 10
482.9800183931
 20
-375.9924343232
 10
488.0973333207
 20
-374.2964712882
 10
493.3782412377
 20
-372.7768042085
 10
498.8045377604
 20
-371.4386716913
 10
504.3575173206
 20
-370.2866865567
 10
510.0180376475
 20
-369.324819936
 10
515.7665857548
 20
-368.5563875827
 10
521.5833452063
 20
-367.9840384424
 10
527.4482644272
 20
-367.6097455211
 10
533.3411258259
 20
-367.434799084
 10
539.2416154885
 20
-367.4598022077
 10
545.1293932046
 20
-367.6846687014
 10
550.9841625848
 20
-368.1086234036
 10
556.7857410262
 20
-368.7302048546
 10
562.514129286
 20
-369.5472703344
 10
568.1495804231
 20
-370.5570032491
 10
573.6726678701
 20
-371.75592284
 10
579.0643524004
 20
-373.1398961831
 10
584.3060477604
 20
-374.7041524354
 10
589.3796847403
 20
-376.4432992816
 10
594.2677734624
 20
-378.3513415223
 10
598.9534636723
 20
-380.4217017405
 10
603.4206028251
 20
-382.6472429758
 10
607.6537917668
 20
-385.0202933264
 10
611.638437818
 20
-387.5326723961
 10
615.3608050784
 20
-390.1757194939
 10
618.808061777
 20
-392.9403234889
 10
621.9683245057
 20
-395.8169542183
 10
624.8306991842
 20
-398.7956953401
 10
627.3853186141
 20
-401.8662785166
 10
629.6233764929
 20
-405.0181188115
 10
631.5371577715
 20
-408.2403511783
 10
633.1200652493
 20
-411.5218679146
 10
634.3666423165
 20
-414.8513569523
 10
635.2725917635
 20
-418.217340853
 10
635.834790595
 20
-421.6082163729
 10
636.0513007951
 20
-425.0122944616
 10
635.9213760083
 20
-428.4178405567
 10
635.4454641122
 20
-431.8131150355
 10
634.6252056739
 20
-435.1864136832
 10
633.4634282939
 20
-438.5261080408
 10
631.9641368597
 20
-441.8206854898
 10
630.1324997394
 20
-445.0587889394
 10
627.9748309656
 20
-448.2292559761
 10
625.4985684695
 20
-451.3211573433
 10
622.712248441
 20
-454.3238346163
 10
619.6254759023
 20
-457.2269369447
 10
616.248891598
 20
-460.0204567332
 10
612.5941353136
 20
-462.6947641405
 10
608.6738057512
 20
-465.2406402749
 10
604.5014170988
 20
-467.649308974
 10
600.0913524446
 20
-469.9124670577
 10
595.4588141949
 20
-472.0223129513
 10
590.6197716689
 20
-473.971573579
 10
585.5909060486
 20
-475.7535294356
 10
580.3895528755
 20
-477.36203775
 10
575.0336422915
 20
-478.7915536609
 10
569.54163723
 20
-480.0371493307
 10
563.9324697702
 20
-481.0945309333
 10
558.2254758743
 20
-481.9600534551
 10
552.4403287325
 20
-482.6307332607
 10
546.5969709455
 20
-483.1042583779
 10
540.7155457781
 20
-483.3789964675
 10
534.8163277212
 20
-483.4540004505
 10
528.9196526016
 20
-483.3290117724
 10
523.04584748
 20
-483.0044612952
 10
517.2151605794
 20
-482.4814678117
 10
511.4476914856
 20
-481.7618341887
 10
505.7633218592
 20
-480.8480411523
 10
500.1816469
 20
-479.7432387366
 10
494.7219077978
 20
-478.4512354242
 10
489.4029254044
 20
-476.9764850183
 10
484.243035354
 20
-475.324071289
 10
479.2600248565
 20
-473.4996904488
 10
474.4710713813
 20
-471.5096315163
 10
469.8926834433
 20
-469.360754637
 10
465.540643694
 20
-467.0604674346
 10
461.4299545161
 20
-464.6166994756
 10
457.5747863068
 20
-462.0378749345
 10
453.9884286295
 20
-459.3328835537
 10
450.683244402
 20
-456.5110499989
 10
447.6706272792
 20
-453.5821017148
 10
444.9609623763
 20
-450.556135393
 10
442.5635904696
 20
-447.4435821662
 10
440.4867757967
 20
-444.2551716503
 10
438.7376775681
 20
-441.0018949567
 10
437.3223252875
 20
-437.6949668043
 10
436.2455979677
 20
-434.3457868594
 10
435.5112073106
 20
-430.9659004391
 10
435.1216849131
 20
-427.5669587121
 10
435.0783735395
 20
-424.1606785346
 10
435.3814224932
 20
-420.7588020601
 10
436.0297871015
 20
-417.3730562615
 10
437.0212323173
 20
-414.015112506
 10
438.3523404237
 20
-410.6965463213
 10
440.0185228152
 20
-407.4287974926
 10
442.014035816
 20
-404.223130627
 10
444.3320004793
 20
-401.0905963223
 10
446.9644263007
 20
-398.0419930732
 10
449.9022387631
 20
-395.0878300466
 10
453.1353106184
 20
-392.2382908545
 10
456.6524967981
 20
-389.5031984488
 10
460.4416728328
 20
-386.8919812596
 10
464.4897766478
 20
-384.4136406936
  0
SPLINE
  5
122
330
1F
100
AcDbEntity
  8
0
  6
Continuous
 62
     7
370
    25
100
AcDbSpline
210
0.0
220
0.0
230
1.0
 70
     8
 71
     3
 72
    17
 73
    13
 74
     0
 42
0.00000001
 43
0.00000001
 40
0.0
 40
0.0
 40
0.0
 40
0.0
 40
0.0718206191599194
 40
0.1792793237919247
 40
0.2865606003584124
 40
0.3936575127123043
 40
0.5008494417398343
 40
0.6082681414968256
 40
0.7156924344060045
 40
0.8228909280002648
 40
0.9299850635244916
 40
1.0
 40
1.0
 40
1.0
 40
1.0
 10
461.1180844653508
 20
-382.2830459222584
 30
0.0
 10
461.3686496044284
 20
-382.428185741501
 30
0.0
 10
461.9941127266501
 20
-382.7904851612702
 30
0.0
 10
463.3881977533694
 20
-382.5572049468337
 30
0.0
 10
465.0602465508745
 20
-381.7035670333337
 30
0.0
 10
466.7200456349812
 20
-380.2340061225448
 30
0.0
 10
468.1540394597578
 20
-378.3397526234814
 30
0.0
 10
469.1867241095314
 20
-376.2135129937525
 30
0.0
 10
469.6848862040591
 20
-374.0780103145015
 30
0.0
 10
469.5617105290287
 20
-372.203939442613
 30
0.0
 10
468.9861852846736
 20
-370.8533938448048
 30
0.0
 10
468.2996028189439
 20
-370.4653389844877
 30
0.0
 10
468.0281823480415
 20
-370.3119327468097
 30
0.0
  0
LWPOLYLINE
  5
123
330
1F
100
AcDbEntity
  8
0
  6
Continuous
 62
     7
370
    25
100
AcDbPolyline
 90
       96
 70
   128
 43
0.0
 10
478.9854656621
 20
-392.7818238397
 10
475.3704975557
 20
-395.0114983051
 10
472.0186966283
 20
-397.3742207692
 10
468.9447194524
 20
-399.8596596479
 10
466.1620077481
 20
-402.4569467494
 10
463.6827296057
 20
-405.1547247981
 10
461.5177262776
 20
-407.941197097
 10
459.6764647725
 20
-410.8041791116
 10
458.1669964586
 20
-413.7311517502
 10
456.9959218567
 20
-416.709316106
 10
456.1683617781
 20
-419.7256494241
 10
455.6879349323
 20
-422.7669620463
 10
455.5567421039
 20
-425.8199550865
 10
455.7753569656
 20
-428.8712785828
 10
456.3428235703
 20
-431.9075898739
 10
457.2566605308
 20
-434.9156119431
 10
458.5128718708
 20
-437.8821914753
 10
460.1059644976
 20
-440.794356373
 10
462.0289722225
 20
-443.6393724801
 10
464.273486222
 20
-446.4047992649
 10
466.8296918074
 20
-449.0785442198
 10
469.6864113423
 20
-451.6489157385
 10
472.8311531188
 20
-454.1046742401
 10
476.2501659813
 20
-456.4350813178
 10
479.9284994566
 20
-458.6299466942
 10
483.8500691282
 20
-460.6796727815
 10
487.9977269697
 20
-462.575296649
 10
492.3533363287
 20
-464.308529216
 10
496.8978512338
 20
-465.8717914974
 10
501.6113996776
 20
-467.2582477449
 10
506.4733705119
 20
-468.4618353383
 10
511.4625035755
 20
-469.4772912951
 10
516.5569826588
 20
-470.3001752849
 10
521.7345309011
 20
-470.9268890453
 10
526.9725082012
 20
-471.3546921165
 10
532.2480102171
 20
-471.5817138246
 10
537.5379685209
 20
-471.6069614613
 10
542.8192514708
 20
-471.4303246253
 10
548.0687653602
 20
-471.0525757043
 10
553.2635554007
 20
-470.4753664984
 10
558.380906097
 20
-469.7012209965
 10
563.3984405766
 20
-468.73352434
 10
568.2942184379
 20
-467.57650802
 10
573.04683169
 20
-466.2352313747
 10
577.6354983644
 20
-464.7155594654
 10
582.0401533892
 20
-463.0241374308
 10
586.2415363287
 20
-461.1683614291
 10
590.2212756044
 20
-459.1563462965
 10
593.9619688289
 20
-456.9968900633
 10
597.4472589025
 20
-454.6994354822
 10
600.6619055386
 20
-452.2740287374
 10
603.5918519054
 20
-449.7312755156
 10
606.2242860928
 20
-447.0822946296
 10
608.547697136
 20
-444.3386693989
 10
610.5519253497
 20
-441.5123969985
 10
612.2282067537
 20
-438.6158359984
 10
613.569211396
 20
-435.661652323
 10
614.5690754046
 20
-432.6627638658
 10
615.2234266286
 20
-429.632284003
 10
615.5294037564
 20
-426.583464252
 10
615.485668828
 20
-423.5296363258
 10
615.0924130851
 20
-420.4841538369
 10
614.3513561351
 20
-417.4603339053
 10
613.2657384313
 20
-414.4713989264
 10
611.8403071038
 20
-411.5304187521
 10
610.0812952011
 20
-408.6502535405
 10
607.9963944347
 20
-405.8434975213
 10
605.5947215452
 20
-403.1224239244
 10
602.8867784371
 20
-400.4989313123
 10
599.8844062565
 20
-397.9844915507
 10
596.600733613
 20
-395.5900996449
 10
593.0501191717
 20
-393.3262256614
 10
589.2480888662
 20
-391.2027689452
 10
585.2112680074
 20
-389.2290148322
 10
580.957308586
 20
-387.4135940469
 10
576.5048120842
 20
-385.7644449626
 10
571.8732481362
 20
-384.2887788885
 10
567.0828693927
 20
-382.993048537
 10
562.1546229612
 20
-381.8829198072
 10
557.1100588094
 20
-380.9632470095
 10
551.9712355327
 20
-380.2380516392
 10
546.7606238978
 20
-379.710504791
 10
541.5010085837
 20
-379.3829132931
 10
536.2153885499
 20
-379.2567096197
 10
530.9268764679
 20
-379.3324456275
 10
525.6585976555
 20
-379.6097901421
 10
520.4335889554
 20
-380.0875304065
 10
515.2746980013
 20
-380.7635773842
 10
510.2044833107
 20
-381.6349748936
 10
505.2451156423
 20
-382.6979125352
 10
500.4182810492
 20
-383.9477423531
 10
495.7450860509
 20
-385.3789991596
 10
491.2459653401
 20
-386.9854244327
 10
486.9405924269
 20
-388.7599936836
 10
482.8477936116
 20
-390.6949471724
 10
478.9854656621
 20
-392.7818238397
  0
LWPOLYLINE
  5
124
330
1F
100
AcDbEntity
  8
0
  6
Continuous
 62
     7
370
    25
100
AcDbPolyline
 90
      108
 70
   128
 43
0.0
 10
547.378557572
 20
-105.4819162326
 10
550.4500968743
 20
-107.2556315666
 10
553.7560210721
 20
-109.1646525129
 10
557.2849339599
 20
-111.2023982808
 10
561.0246706438
 20
-113.3618443384
 10
564.9623394768
 20
-115.6355466279
 10
569.0843664987
 20
-118.0156672265
 10
573.3765422283
 20
-120.4940013653
 10
577.8240706469
 20
-123.0620057132
 10
582.4116202025
 20
-125.7108278272
 10
587.1233766616
 20
-128.4313366688
 10
591.9430976234
 20
-131.2141540803
 10
596.8541685114
 20
-134.0496871137
 10
601.8396598468
 20
-136.9281610992
 10
606.8823856082
 20
-139.8396533407
 10
611.9649624753
 20
-142.7741273212
 10
617.0698697527
 20
-145.721467301
 10
622.1795097673
 20
-148.6715131887
 10
627.2762685317
 20
-151.6140955649
 10
632.3425764624
 20
-154.5390707386
 10
637.3609689466
 20
-157.4363557144
 10
642.3141465456
 20
-160.2959629508
 10
647.1850346302
 20
-163.1080347893
 10
651.9568422402
 20
-165.8628774357
 10
656.613119966
 20
-168.5509943767
 10
661.1378166539
 20
-171.1631191163
 10
665.515334737
 20
-173.6902471193
 10
669.7305840036
 20
-176.1236668522
 10
673.7690336162
 20
-178.4549898129
 10
677.6167622025
 20
-180.6761794481
 10
681.2605058448
 20
-182.7795788572
 10
684.6877038041
 20
-184.7579371866
 10
687.8865418189
 20
-186.6044346253
 10
690.8459928319
 20
-188.3127059141
 10
693.5558550024
 20
-189.8768622879
 10
696.0067868742
 20
-191.2915117758
 10
698.1903395774
 20
-192.5517777879
 10
700.0989859533
 20
-193.6533159261
 10
701.7261465026
 20
-194.5923289603
 10
703.0662120658
 20
-195.3655799181
 10
704.1145631592
 20
-195.9704032431
 10
704.8675858995
 20
-196.4047139842
 10
705.3226844613
 20
-196.6670149822
 10
705.4782900255
 20
-196.7564020312
 10
705.3338661876
 20
-196.6725669956
 10
704.8899108064
 20
-196.415798872
 10
704.1479542881
 20
-195.9869827935
 10
703.1105543105
 20
-195.3875969778
 10
701.7812870063
 20
-194.6197076321
 10
700.1647346352
 20
-193.6859618299
 10
698.2664697881
 20
-192.5895783866
 10
696.0930361773
 20
-191.3343367629
 10
693.6519260785
 20
-189.9245640368
 10
690.9515545041
 20
-188.3651199869
 10
688.0012301943
 20
-186.66138034
 10
684.8111235281
 20
-184.8192182394
 10
681.3922314641
 20
-182.8449839997
 10
677.7563396316
 20
-180.7454832152
 10
673.9159817028
 20
-178.5279533
 10
669.8843961871
 20
-176.2000385392
 10
665.675480795
 20
-173.7697637372
 10
661.3037445298
 20
-171.2455065547
 10
656.784257672
 20
-168.6359686292
 10
652.1325998291
 20
-165.9501455784
 10
647.3648062293
 20
-163.1972959908
 10
642.4973124449
 20
-160.3869095093
 10
637.5468977352
 20
-157.5286741182
 10
632.5306272054
 20
-154.632442747
 10
627.4657929792
 20
-151.7081993053
 10
622.3698545893
 20
-148.766024266
 10
617.260378791
 20
-145.816059916
 10
612.154979006
 20
-142.8684753935
 10
607.0712546049
 20
-139.9334316329
 10
602.0267302388
 20
-137.0210463383
 10
597.0387954284
 20
-134.1413591049
 10
592.1246446182
 20
-131.3042968112
 10
587.301217904
 20
-128.5196393988
 10
582.585142637
 20
-125.7969861585
 10
577.9926761057
 20
-123.1457226402
 10
573.5396494935
 20
-120.5749882983
 10
569.2414133056
 20
-118.0936449869
 10
565.1127844527
 20
-115.7102464102
 10
561.1679951736
 20
-113.4330086369
 10
557.4206439743
 20
-111.2697817774
 10
553.8836487506
 20
-109.2280229228
 10
550.5692022577
 20
-107.3147704389
 10
547.4887300795
 20
-105.5366197032
 10
544.6528512416
 20
-103.8997003699
 10
542.0713416058
 20
-102.4096552388
 10
539.7531001708
 20
-101.0716208044
 10
537.7061183948
 20
-99.8902095483
 10
535.9374526483
 20
-98.8694940401
 10
534.4531998883
 20
-98.0129928974
 10
533.2584766417
 20
-97.3236586572
 10
532.3574013671
 20
-96.8038675975
 10
531.7530802574
 20
-96.4554115455
 10
531.4475965328
 20
-96.2794917017
 10
531.442003259
 20
-96.276714498
 10
531.7363197171
 20
-96.4470895082
 10
532.3295313374
 20
-96.7900294142
 10
533.2195931964
 20
-97.3043520311
 10
534.4034370667
 20
-97.9882843824
 10
535.876981993
 20
-98.8394688116
 10
537.6351483609
 20
-99.8549711095
 10
539.6718754065
 20
-101.0312906294
 10
541.9801421099
 20
-102.3643723542
 10
544.5519913975
 20
-103.849620875
 10
547.378557572
 20
-105.4819162326
  0
SPLINE
  5
125
330
1F
100
AcDbEntity
  8
0
  6
Continuous
 62
     7
370
    25
100
AcDbSpline
210
0.0
220
0.0
230
1.0
 70
     8
 71
     3
 72
    17
 73
    13
 74
     0
 42
0.00000001
 43
0.00000001
 40
0.0
 40
0.0
 40
0.0
 40
0.0
 40
0.0720221922242047
 40
0.1791173043403077
 40
0.2863887868831633
 40
0.3938454623177189
 40
0.5012068711458638
 40
0.6083402785627302
 40
0.7154691994275961
 40
0.8228236101706192
 40
0.9302821201216666
 40
1.0
 40
1.0
 40
1.0
 40
1.0
 10
538.924236752257
 20
-120.1298949745677
 30
0.0
 10
539.1890891228464
 20
-120.2827807499273
 30
0.0
 10
539.8477700266498
 20
-120.6630036660691
 30
0.0
 10
541.321864016927
 20
-120.4765466407939
 30
0.0
 10
543.059127307261
 20
-119.6630007950721
 30
0.0
 10
544.7406956234247
 20
-118.2029651637795
 30
0.0
 10
546.1377758827186
 20
-116.283060099422
 30
0.0
 10
547.089792465088
 20
-114.1127097894932
 30
0.0
 10
547.5020022734325
 20
-111.9319254060243
 30
0.0
 10
547.3273201654567
 20
-110.0272861078039
 30
0.0
 10
546.7481247770953
 20
-108.6730638330327
 30
0.0
 10
546.0930461326432
 20
-108.304329840192
 30
0.0
 10
545.8352764925193
 20
-108.1592351566132
 30
0.0
  0
LWPOLYLINE
  5
126
330
1F
100
AcDbEntity
  8
0
  6
Continuous
 62
     7
370
    25
100
AcDbPolyline
 90
       29
 70
   128
 43
0.0
 10
448.9334274617
 20
-372.9826001274
 10
449.0575279649
 20
-371.6390764633
 10
449.4236065571
 20
-370.2196392947
 10
450.013306529
 20
-368.7954651282
 10
450.7970578617
 20
-367.4379680034
 10
451.7355599907
 20
-366.2152184946
 10
452.7817525005
 20
-365.1885303678
 10
453.88317493
 20
-364.4093860528
 10
454.9845973595
 20
-363.9168550991
 10
456.0307898692
 20
-363.7356350652
 10
456.9692919982
 20
-363.8748130803
 10
457.753043331
 20
-364.3274101777
 10
458.3427433029
 20
-365.0707312489
 10
458.7088218951
 20
-366.0675030717
 10
458.8329223983
 20
-367.2677433447
 10
458.7088218951
 20
-368.6112670087
 10
458.3427433029
 20
-370.0307041774
 10
457.753043331
 20
-371.4548783438
 10
456.9692919982
 20
-372.8123754686
 10
456.0307898692
 20
-374.0351249775
 10
454.9845973595
 20
-375.0618131043
 10
453.88317493
 20
-375.8409574192
 10
452.7817525005
 20
-376.333488373
 10
451.7355599907
 20
-376.5147084069
 10
450.7970578617
 20
-376.3755303918
 10
450.013306529
 20
-375.9229332944
 10
449.4236065571
 20
-375.1796122232
 10
449.0575279649
 20
-374.1828404004
 10
448.9334274617
 20
-372.9826001274
  0
LWPOLYLINE
  5
127
330
1F
100
AcDbEntity
  8
0
  6
Continuous
 62
     7
370
    25
100
AcDbPolyline
 90
       24
 70
   128
 43
0.0
 10
450.347641024
 20
-372.1661920156
 10
450.478748212
 20
-370.9890050742
 10
450.8623461553
 20
-369.7477515659
 10
451.4699851495
 20
-368.5344895851
 10
452.2565993901
 20
-367.4392012225
 10
453.1638492975
 20
-366.5431190054
 10
454.1244482963
 20
-365.9127012525
 10
455.0671531532
 20
-365.5947031646
 10
455.9220477617
 20
-365.6127092052
 10
456.6257284995
 20
-365.9653839485
 10
457.1260065854
 20
-366.6265711222
 10
457.3857786823
 20
-367.5472334985
 10
457.3857786823
 20
-368.6590897605
 10
457.1260065854
 20
-369.8796786158
 10
456.6257284995
 20
-371.1184745728
 10
455.9220477617
 20
-372.2836018024
 10
455.0671531532
 20
-373.2886481482
 10
454.1244482963
 20
-374.0590739204
 10
453.1638492975
 20
-374.537740164
 10
452.2565993901
 20
-374.6891463934
 10
451.4699851495
 20
-374.5020635014
 10
450.8623461553
 20
-373.99036657
 10
450.478748212
 20
-373.1920058199
 10
450.347641024
 20
-372.1661920156
  0
LWPOLYLINE
  5
128
330
1F
100
AcDbEntity
  8
0
  6
Continuous
 62
     7
370
    25
100
AcDbPolyline
 90
       96
 70
   128
 43
0.0
 10
561.8742465863
 20
-113.8500993788
 10
559.3543031349
 20
-112.3948708703
 10
557.0927385981
 20
-111.0888035037
 10
555.0994422224
 20
-109.9376083794
 10
553.3831301856
 20
-108.9463193806
 10
551.9513074835
 20
-108.1192711619
 10
550.8102351125
 20
-107.4600801949
 10
549.9649026917
 20
-106.9716289538
 10
549.4190066448
 20
-106.6560533117
 10
549.1749340362
 20
-106.5147332005
 10
549.2337521334
 20
-106.5482865771
 10
549.5952037398
 20
-106.7565667212
 10
550.2577083195
 20
-107.1386628766
 10
551.2183689085
 20
-107.6929042342
 10
552.4729847825
 20
-108.4168672374
 10
554.0160698255
 20
-109.3073861803
 10
555.8408765192
 20
-110.3605670501
 10
557.9394254483
 20
-111.5718045548
 10
560.3025401922
 20
-112.9358022611
 10
562.9198874515
 20
-114.4465957539
 10
565.7800222325
 20
-116.0975787178
 10
568.8704378935
 20
-117.8815318243
 10
572.1776208332
 20
-119.7906543003
 10
575.687109582
 20
-121.8165980392
 10
579.3835580387
 20
-123.9505041043
 10
583.2508025745
 20
-126.1830414673
 10
587.2719327132
 20
-128.5044478106
 10
591.4293650758
 20
-130.9045722146
 10
595.7049202683
 20
-133.3729195462
 10
600.0799023757
 20
-135.8986963504
 10
604.5351807145
 20
-138.470858048
 10
609.0512734861
 20
-141.0781572303
 10
613.6084329658
 20
-143.7091928414
 10
618.1867318548
 20
-146.352460032
 10
622.7661504169
 20
-148.9964004672
 10
627.3266640199
 20
-151.6294528682
 10
631.8483306981
 20
-154.2401035668
 10
636.3113783538
 20
-156.8169368517
 10
640.696291215
 20
-159.3486848867
 10
644.9838951734
 20
-161.8242769817
 10
649.155441628
 20
-164.2328880024
 10
653.1926894675
 20
-166.5639857057
 10
657.0779848343
 20
-168.8073767944
 10
660.7943383203
 20
-170.95325149
 10
664.3254992572
 20
-172.9922264286
 10
667.6560267769
 20
-174.9153856915
 10
670.7713573298
 20
-176.7143197926
 10
673.6578683681
 20
-178.3811624507
 10
676.3029379135
 20
-179.9086249871
 10
678.6949997498
 20
-181.2900281967
 10
680.8235939994
 20
-182.5193315548
 10
682.679412861
 20
-183.5911596305
 10
684.254341311
 20
-184.5008255924
 10
685.5414925881
 20
-185.2443517026
 10
686.5352383071
 20
-185.8184867108
 10
687.231233071
 20
-186.2207200706
 10
687.6264334717
 20
-186.4492929178
 10
687.7191113983
 20
-186.5032057615
 10
687.508861594
 20
-186.3822228546
 10
686.9966034276
 20
-186.0868732246
 10
686.1845768737
 20
-185.6184483603
 10
685.0763327178
 20
-184.9789965643
 10
683.6767170297
 20
-184.1713139967
 10
681.9918499727
 20
-183.1989324479
 10
680.0290990416
 20
-182.0661038949
 10
677.7970468469
 20
-180.7777819089
 10
675.305453585
 20
-179.3395999939
 10
672.5652143592
 20
-177.7578469537
 10
669.5883115385
 20
-176.0394393918
 10
666.3877623613
 20
-174.1918914673
 10
662.9775620151
 20
-172.2232820371
 10
659.3726224381
 20
-170.1422193293
 10
655.5887071139
 20
-167.9578033018
 10
651.6423621415
 20
-165.67958585
 10
647.5508438833
 20
-163.3175290392
 10
643.3320435076
 20
-160.8819615427
 10
639.0044087551
 20
-158.3835334776
 10
634.5868632714
 20
-155.8331698341
 10
630.0987238589
 20
-153.2420227034
 10
625.5596160094
 20
-150.6214225128
 10
620.9893880865
 20
-147.9828284801
 10
616.4080245341
 20
-145.3377785055
 10
611.8355584893
 20
-142.6978387197
 10
607.2919841828
 20
-140.0745529077
 10
602.7971695089
 20
-137.4793920308
 10
598.3707691486
 20
-134.9237040672
 10
594.0321386243
 20
-132.4186643901
 10
589.8002496636
 20
-129.9752269007
 10
585.6936072399
 20
-127.6040761295
 10
581.7301686559
 20
-125.3155805153
 10
577.9272650198
 20
-123.1197470673
 10
574.3015254619
 20
-121.0261776065
 10
570.8688044185
 20
-119.0440267793
 10
567.6441123055
 20
-117.1819620271
 10
564.6415498809
 20
-115.4481256852
 10
561.8742465863
 20
-113.8500993788
  0
LWPOLYLINE
  5
129
330
1F
100
AcDbEntity
  8
0
  6
Continuous
 62
     7
370
    25
100
AcDbPolyline
 90
       29
 70
   128
 43
0.0
 10
526.8222083859
 20
-110.8765377977
 10
526.9463088891
 20
-109.5330141337
 10
527.3123874813
 20
-108.113576965
 10
527.9020874532
 20
-106.6894027986
 10
528.6858387859
 20
-105.3319056738
 10
529.624340915
 20
-104.1091561649
 10
530.6705334247
 20
-103.0824680381
 10
531.7719558542
 20
-102.3033237232
 10
532.8733782837
 20
-101.8107927694
 10
533.9195707934
 20
-101.6295727355
 10
534.8580729225
 20
-101.7687507506
 10
535.6418242552
 20
-102.221347848
 10
536.2315242271
 20
-102.9646689192
 10
536.5976028193
 20
-103.961440742
 10
536.7217033225
 20
-105.161681015
 10
536.5976028193
 20
-106.5052046791
 10
536.2315242271
 20
-107.9246418477
 10
535.6418242552
 20
-109.3488160142
 10
534.8580729225
 20
-110.706313139
 10
533.9195707934
 20
-111.9290626478
 10
532.8733782837
 20
-112.9557507746
 10
531.7719558542
 20
-113.7348950896
 10
530.6705334247
 20
-114.2274260433
 10
529.624340915
 20
-114.4086460772
 10
528.6858387859
 20
-114.2694680621
 10
527.9020874532
 20
-113.8168709647
 10
527.3123874813
 20
-113.0735498935
 10
526.9463088891
 20
-112.0767780707
 10
526.8222083859
 20
-110.8765377977
  0
LWPOLYLINE
  5
12A
330
1F
100
AcDbEntity
  8
0
  6
Continuous
 62
     7
370
    25
100
AcDbPolyline
 90
       24
 70
   128
 43
0.0
 10
528.2364219483
 20
-110.0601296859
 10
528.3675291362
 20
-108.8829427445
 10
528.7511270795
 20
-107.6416892363
 10
529.3587660737
 20
-106.4284272554
 10
530.1453803144
 20
-105.3331388928
 10
531.0526302217
 20
-104.4370566757
 10
532.0132292205
 20
-103.8066389228
 10
532.9559340774
 20
-103.4886408349
 10
533.8108286859
 20
-103.5066468755
 10
534.5145094237
 20
-103.8593216188
 10
535.0147875096
 20
-104.5205087926
 10
535.2745596065
 20
-105.4411711688
 10
535.2745596065
 20
-106.5530274309
 10
535.0147875096
 20
-107.7736162861
 10
534.5145094237
 20
-109.0124122431
 10
533.8108286859
 20
-110.1775394727
 10
532.9559340774
 20
-111.1825858185
 10
532.0132292205
 20
-111.9530115907
 10
531.0526302217
 20
-112.4316778343
 10
530.1453803144
 20
-112.5830840638
 10
529.3587660737
 20
-112.3960011717
 10
528.7511270795
 20
-111.8843042403
 10
528.3675291362
 20
-111.0859434902
 10
528.2364219483
 20
-110.0601296859
  0
LWPOLYLINE
  5
12B
330
1F
100
AcDbEntity
  8
0
  6
Continuous
 62
     1
370
    25
100
AcDbPolyline
 90
       42
 70
   128
 43
0.0
 10
464.4897766478
 20
-283.2099458794
 10
468.7828535905
 20
-280.8730252897
 10
473.3061045354
 20
-278.685580526
 10
478.0439368995
 20
-276.6551521633
 10
482.9800183931
 20
-274.788739509
 10
488.0973333207
 20
-273.092776474
 10
493.3782412377
 20
-271.5731093943
 10
498.8045377604
 20
-270.2349768771
 10
504.3575173206
 20
-269.0829917425
 10
510.0180376475
 20
-268.1211251218
 10
515.7665857548
 20
-267.3526927685
 10
521.5833452063
 20
-266.7803436282
 10
527.4482644272
 20
-266.4060507069
 10
533.3411258259
 20
-266.2311042698
 10
539.2416154885
 20
-266.2561073935
 10
545.1293932046
 20
-266.4809738872
 10
550.9841625848
 20
-266.9049285894
 10
556.7857410262
 20
-267.5265100404
 10
562.514129286
 20
-268.3435755202
 10
568.1495804231
 20
-269.3533084349
 10
573.6726678701
 20
-270.5522280258
 10
579.0643524004
 20
-271.9362013688
 10
584.3060477604
 20
-273.5004576212
 10
589.3796847403
 20
-275.2396044674
 10
594.2677734624
 20
-277.1476467081
 10
598.9534636723
 20
-279.2180069263
 10
603.4206028251
 20
-281.4435481616
 10
607.6537917668
 20
-283.8165985122
 10
611.638437818
 20
-286.3289775819
 10
615.3608050784
 20
-288.9720246797
 10
618.808061777
 20
-291.7366286747
 10
621.9683245057
 20
-294.6132594041
 10
624.8306991842
 20
-297.5920005259
 10
627.3853186141
 20
-300.6625837024
 10
629.6233764929
 20
-303.8144239973
 10
631.5371577715
 20
-307.0366563641
 10
633.1200652493
 20
-310.3181731004
 10
634.3666423165
 20
-313.6476621381
 10
635.2725917635
 20
-317.0136460388
 10
635.834790595
 20
-320.4045215587
 10
636.0513007951
 20
-323.8085996474
 10
636.054008157
 20
-324.2344534984
  0
LWPOLYLINE
  5
12C
330
1F
100
AcDbEntity
  8
0
  6
Continuous
 62
     1
370
    25
100
AcDbPolyline
 90
       15
 70
   128
 43
0.0
 10
435.054008157
 20
-324.2344534984
 10
435.0783735395
 20
-322.9569837204
 10
435.3814224932
 20
-319.5551072459
 10
436.0297871015
 20
-316.1693614473
 10
437.0212323173
 20
-312.8114176918
 10
438.3523404237
 20
-309.4928515071
 10
440.0185228152
 20
-306.2251026784
 10
442.014035816
 20
-303.0194358128
 10
444.3320004793
 20
-299.8869015081
 10
446.9644263007
 20
-296.838298259
 10
449.9022387631
 20
-293.8841352324
 10
453.1353106184
 20
-291.0345960403
 10
456.6524967981
 20
-288.2995036346
 10
460.4416728328
 20
-285.6882864454
 10
464.4897766478
 20
-283.2099458794
  0
LWPOLYLINE
  5
12D
330
1F
100
AcDbEntity
  8
0
  6
Continuous
 62
     1
370
    25
100
AcDbPolyline
 90
       45
 70
   128
 43
0.0
 10
485.4075615476
 20
-212.8188296274
 10
488.4791008499
 20
-214.5925449615
 10
491.7850250478
 20
-216.5015659077
 10
495.3139379355
 20
-218.5393116756
 10
499.0536746194
 20
-220.6987577332
 10
502.9913434524
 20
-222.9724600227
 10
507.1133704743
 20
-225.3525806213
 10
511.405546204
 20
-227.8309147601
 10
515.8530746225
 20
-230.398919108
 10
520.4406241782
 20
-233.047741222
 10
525.1523806372
 20
-235.7682500636
 10
529.972101599
 20
-238.5510674751
 10
534.883172487
 20
-241.3866005085
 10
539.8686638224
 20
-244.265074494
 10
544.9113895839
 20
-247.1765667355
 10
549.9939664509
 20
-250.111040716
 10
555.0988737283
 20
-253.0583806958
 10
560.208513743
 20
-256.0084265835
 10
565.3052725073
 20
-258.9510089597
 10
570.3715804381
 20
-261.8759841334
 10
575.3899729222
 20
-264.7732691092
 10
580.3431505213
 20
-267.6328763457
 10
585.2140386059
 20
-270.4449481842
 10
589.9858462158
 20
-273.1997908305
 10
594.6421239417
 20
-275.8879077715
 10
599.1668206296
 20
-278.5000325111
 10
603.5443387126
 20
-281.0271605142
 10
607.7595879792
 20
-283.460580247
 10
611.7980375919
 20
-285.7919032077
 10
615.6457661781
 20
-288.013092843
 10
619.2895098204
 20
-290.1164922521
 10
622.7167077797
 20
-292.0948505814
 10
625.9155457945
 20
-293.9413480201
 10
628.8749968075
 20
-295.6496193089
 10
631.5848589781
 20
-297.2137756827
 10
634.0357908499
 20
-298.6284251706
 10
636.219343553
 20
-299.8886911827
 10
638.1279899289
 20
-300.9902293209
 10
639.7551504783
 20
-301.9292423551
 10
641.0952160414
 20
-302.7024933129
 10
642.1435671349
 20
-303.307316638
 10
642.8965898751
 20
-303.741627379
 10
643.3516884369
 20
-304.003928377
 10
643.5072940011
 20
-304.093315426
 10
643.5073460733
 20
-304.0933373571
  0
LWPOLYLINE
  5
12E
330
1F
100
AcDbEntity
  8
0
  6
Continuous
 62
     1
370
    25
100
AcDbPolyline
 90
       12
 70
   128
 43
0.0
 10
469.4362400404
 20
-203.5933371359
 10
469.4710072346
 20
-203.6136278929
 10
469.7653236928
 20
-203.784002903
 10
470.358535313
 20
-204.126942809
 10
471.2485971721
 20
-204.641265426
 10
472.4324410423
 20
-205.3251977773
 10
473.9059859687
 20
-206.1763822064
 10
475.6641523365
 20
-207.1918845043
 10
477.7008793821
 20
-208.3682040242
 10
480.0091460855
 20
-209.701285749
 10
482.5809953731
 20
-211.1865342699
 10
485.4075615476
 20
-212.8188296274
  0
ENDSEC
  0
SECTION
  2
OBJECTS
  0
DICTIONARY
  5
C
330
0
100
AcDbDictionary
281
     1
  3
ACAD_GROUP
350
D
  3
ACAD_LAYOUT
350
1A
  3
ACAD_MLINESTYLE
350
17
  3
ACAD_PLOTSETTINGS
350
19
  3
ACAD_PLOTSTYLENAME
350
E
  3
ACAD_SCALELIST
350
47
  3
DWGPROPS
350
12F
  0
DICTIONARY
  5
D
102
{ACAD_REACTORS
330
C
102
}
330
C
100
AcDbDictionary
281
     1
  0
DICTIONARY
  5
1A
102
{ACAD_REACTORS
330
C
102
}
330
C
100
AcDbDictionary
281
     1
  3
Layout1
350
1E
  3
Layout2
350
26
  3
Model
350
22
  0
DICTIONARY
  5
17
102
{ACAD_REACTORS
330
C
102
}
330
C
100
AcDbDictionary
281
     1
  3
Standard
350
18
  0
DICTIONARY
  5
19
102
{ACAD_REACTORS
330
C
102
}
330
C
100
AcDbDictionary
281
     1
  0
ACDBDICTIONARYWDFLT
  5
E
102
{ACAD_REACTORS
330
C
102
}
330
C
100
AcDbDictionary
281
     1
  3
Normal
350
F
100
AcDbDictionaryWithDefault
340
F
  0
DICTIONARY
  5
47
102
{ACAD_REACTORS
330
C
102
}
330
C
100
AcDbDictionary
281
     1
  3
A0
350
48
  3
A1
350
49
  3
A2
350
4A
  3
A3
350
4B
  3
A4
350
4C
  3
A5
350
4D
  3
A6
350
4E
  3
A7
350
4F
  3
A8
350
50
  3
A9
350
51
  3
B0
350
52
  3
B1
350
53
  3
B2
350
54
  3
B3
350
55
  3
B4
350
56
  3
B5
350
57
  3
B6
350
58
  3
B7
350
59
  3
B8
350
5A
  3
B9
350
5B
  3
C0
350
5C
  3
C1
350
5D
  3
C2
350
5E
  3
C3
350
5F
  3
C4
350
60
  3
C5
350
61
  3
C6
350
62
  3
C7
350
63
  3
C8
350
64
  3
C9
350
65
  3
D0
350
66
  3
D1
350
67
  3
D2
350
68
  0
XRECORD
  5
12F
102
{ACAD_REACTORS
330
C
102
}
330
C
100
AcDbXrecord
280
     1
  1
DWGPROPS COOKIE
  2

  3

  4

  6

  7

  8
b.kav
  9

300
=
301
=
302
=
303
=
304
=
305
=
306
=
307
=
308
=
309
=
 40
0.0
 41
2459741.478206783
 42
2459741.478206967
  1

 90
        0
  0
LAYOUT
  5
1E
102
{ACAD_REACTORS
330
1A
102
}
330
1A
100
AcDbPlotSettings
  1

  2
none_device
  4

  6

 40
0.0
 41
0.0
 42
0.0
 43
0.0
 44
0.0
 45
0.0
 46
0.0
 47
0.0
 48
0.0
 49
0.0
140
0.0
141
0.0
142
1.0
143
1.0
 70
   688
 72
     1
 73
     0
 74
     5
  7

 75
    16
147
1.0
148
0.0
149
0.0
100
AcDbLayout
  1
Layout1
 70
     1
 71
     1
 10
0.0
 20
0.0
 11
420.0
 21
297.0
 12
0.0
 22
0.0
 32
0.0
 14
1.0000000000E+20
 24
1.0000000000E+20
 34
1.0000000000E+20
 15
-1.0000000000E+20
 25
-1.0000000000E+20
 35
-1.0000000000E+20
146
0.0
 13
0.0
 23
0.0
 33
0.0
 16
1.0
 26
0.0
 36
0.0
 17
0.0
 27
1.0
 37
0.0
 76
     0
330
1B
  0
LAYOUT
  5
26
102
{ACAD_REACTORS
330
1A
102
}
330
1A
100
AcDbPlotSettings
  1

  2
none_device
  4

  6

 40
0.0
 41
0.0
 42
0.0
 43
0.0
 44
0.0
 45
0.0
 46
0.0
 47
0.0
 48
0.0
 49
0.0
140
0.0
141
0.0
142
1.0
143
1.0
 70
   688
 72
     1
 73
     0
 74
     5
  7

 75
    16
147
1.0
148
0.0
149
0.0
100
AcDbLayout
  1
Layout2
 70
     1
 71
     2
 10
0.0
 20
0.0
 11
0.0
 21
0.0
 12
0.0
 22
0.0
 32
0.0
 14
0.0
 24
0.0
 34
0.0
 15
0.0
 25
0.0
 35
0.0
146
0.0
 13
0.0
 23
0.0
 33
0.0
 16
1.0
 26
0.0
 36
0.0
 17
0.0
 27
1.0
 37
0.0
 76
     0
330
23
  0
LAYOUT
  5
22
102
{ACAD_REACTORS
330
1A
102
}
330
1A
100
AcDbPlotSettings
  1

  2
none_device
  4
Letter_(8.50_x_11.00_Inches)
  6

 40
6.35
 41
6.35
 42
6.35000508
 43
6.35000508
 44
215.9
 45
279.4
 46
0.0
 47
0.0
 48
0.0
 49
0.0
140
0.0
141
0.0
142
1.0
143
1.0
 70
  1712
 72
     1
 73
     0
 74
     0
  7

 75
     0
147
1.0
148
0.0
149
0.0
100
AcDbLayout
  1
Model
 70
     1
 71
     0
 10
0.0
 20
0.0
 11
279.4
 21
215.9
 12
0.0
 22
0.0
 32
0.0
 14
0.0
 24
0.0
 34
0.0
 15
279.4
 25
215.9
 35
0.0
146
0.0
 13
0.0
 23
0.0
 33
0.0
 16
1.0
 26
0.0
 36
0.0
 17
0.0
 27
1.0
 37
0.0
 76
     0
330
1F
331
29
  0
MLINESTYLE
  5
18
102
{ACAD_REACTORS
330
17
102
}
330
17
100
AcDbMlineStyle
  2
Standard
 70
     0
  3

 62
   256
 51
90.0
 52
90.0
 71
     2
 49
0.5
 62
   256
  6
BYLAYER
 49
-0.5
 62
   256
  6
BYLAYER
  0
ACDBPLACEHOLDER
  5
F
102
{ACAD_REACTORS
330
E
102
}
330
E
  0
SCALE
  5
48
102
{ACAD_REACTORS
330
47
102
}
330
47
100
AcDbScale
 70
     0
300
1:1
140
1.0
141
1.0
290
     1
  0
SCALE
  5
49
102
{ACAD_REACTORS
330
47
102
}
330
47
100
AcDbScale
 70
     0
300
1:2
140
1.0
141
2.0
290
     0
  0
SCALE
  5
4A
102
{ACAD_REACTORS
330
47
102
}
330
47
100
AcDbScale
 70
     0
300
1:4
140
1.0
141
4.0
290
     0
  0
SCALE
  5
4B
102
{ACAD_REACTORS
330
47
102
}
330
47
100
AcDbScale
 70
     0
300
1:5
140
1.0
141
5.0
290
     0
  0
SCALE
  5
4C
102
{ACAD_REACTORS
330
47
102
}
330
47
100
AcDbScale
 70
     0
300
1:8
140
1.0
141
8.0
290
     0
  0
SCALE
  5
4D
102
{ACAD_REACTORS
330
47
102
}
330
47
100
AcDbScale
 70
     0
300
1:10
140
1.0
141
10.0
290
     0
  0
SCALE
  5
4E
102
{ACAD_REACTORS
330
47
102
}
330
47
100
AcDbScale
 70
     0
300
1:16
140
1.0
141
16.0
290
     0
  0
SCALE
  5
4F
102
{ACAD_REACTORS
330
47
102
}
330
47
100
AcDbScale
 70
     0
300
1:20
140
1.0
141
20.0
290
     0
  0
SCALE
  5
50
102
{ACAD_REACTORS
330
47
102
}
330
47
100
AcDbScale
 70
     0
300
1:30
140
1.0
141
30.0
290
     0
  0
SCALE
  5
51
102
{ACAD_REACTORS
330
47
102
}
330
47
100
AcDbScale
 70
     0
300
1:40
140
1.0
141
40.0
290
     0
  0
SCALE
  5
52
102
{ACAD_REACTORS
330
47
102
}
330
47
100
AcDbScale
 70
     0
300
1:50
140
1.0
141
50.0
290
     0
  0
SCALE
  5
53
102
{ACAD_REACTORS
330
47
102
}
330
47
100
AcDbScale
 70
     0
300
1:100
140
1.0
141
100.0
290
     0
  0
SCALE
  5
54
102
{ACAD_REACTORS
330
47
102
}
330
47
100
AcDbScale
 70
     0
300
2:1
140
2.0
141
1.0
290
     0
  0
SCALE
  5
55
102
{ACAD_REACTORS
330
47
102
}
330
47
100
AcDbScale
 70
     0
300
4:1
140
4.0
141
1.0
290
     0
  0
SCALE
  5
56
102
{ACAD_REACTORS
330
47
102
}
330
47
100
AcDbScale
 70
     0
300
8:1
140
8.0
141
1.0
290
     0
  0
SCALE
  5
57
102
{ACAD_REACTORS
330
47
102
}
330
47
100
AcDbScale
 70
     0
300
10:1
140
10.0
141
1.0
290
     0
  0
SCALE
  5
58
102
{ACAD_REACTORS
330
47
102
}
330
47
100
AcDbScale
 70
     0
300
100:1
140
100.0
141
1.0
290
     0
  0
SCALE
  5
59
102
{ACAD_REACTORS
330
47
102
}
330
47
100
AcDbScale
 70
     0
300
1/128" = 1'-0"
140
0.0078125
141
12.0
290
     0
  0
SCALE
  5
5A
102
{ACAD_REACTORS
330
47
102
}
330
47
100
AcDbScale
 70
     0
300
1/64" = 1'-0"
140
0.015625
141
12.0
290
     0
  0
SCALE
  5
5B
102
{ACAD_REACTORS
330
47
102
}
330
47
100
AcDbScale
 70
     0
300
1/32" = 1'-0"
140
0.03125
141
12.0
290
     0
  0
SCALE
  5
5C
102
{ACAD_REACTORS
330
47
102
}
330
47
100
AcDbScale
 70
     0
300
1/16" = 1'-0"
140
0.0625
141
12.0
290
     0
  0
SCALE
  5
5D
102
{ACAD_REACTORS
330
47
102
}
330
47
100
AcDbScale
 70
     0
300
3/32" = 1'-0"
140
0.09375
141
12.0
290
     0
  0
SCALE
  5
5E
102
{ACAD_REACTORS
330
47
102
}
330
47
100
AcDbScale
 70
     0
300
1/8" = 1'-0"
140
0.125
141
12.0
290
     0
  0
SCALE
  5
5F
102
{ACAD_REACTORS
330
47
102
}
330
47
100
AcDbScale
 70
     0
300
3/16" = 1'-0"
140
0.1875
141
12.0
290
     0
  0
SCALE
  5
60
102
{ACAD_REACTORS
330
47
102
}
330
47
100
AcDbScale
 70
     0
300
1/4" = 1'-0"
140
0.25
141
12.0
290
     0
  0
SCALE
  5
61
102
{ACAD_REACTORS
330
47
102
}
330
47
100
AcDbScale
 70
     0
300
3/8" = 1'-0"
140
0.375
141
12.0
290
     0
  0
SCALE
  5
62
102
{ACAD_REACTORS
330
47
102
}
330
47
100
AcDbScale
 70
     0
300
1/2" = 1'-0"
140
0.5
141
12.0
290
     0
  0
SCALE
  5
63
102
{ACAD_REACTORS
330
47
102
}
330
47
100
AcDbScale
 70
     0
300
3/4" = 1'-0"
140
0.75
141
12.0
290
     0
  0
SCALE
  5
64
102
{ACAD_REACTORS
330
47
102
}
330
47
100
AcDbScale
 70
     0
300
1" = 1'-0"
140
1.0
141
12.0
290
     0
  0
SCALE
  5
65
102
{ACAD_REACTORS
330
47
102
}
330
47
100
AcDbScale
 70
     0
300
1-1/2" = 1'-0"
140
1.5
141
12.0
290
     0
  0
SCALE
  5
66
102
{ACAD_REACTORS
330
47
102
}
330
47
100
AcDbScale
 70
     0
300
3" = 1'-0"
140
3.0
141
12.0
290
     0
  0
SCALE
  5
67
102
{ACAD_REACTORS
330
47
102
}
330
47
100
AcDbScale
 70
     0
300
6" = 1'-0"
140
6.0
141
12.0
290
     0
  0
SCALE
  5
68
102
{ACAD_REACTORS
330
47
102
}
330
47
100
AcDbScale
 70
     0
300
1'-0" = 1'-0"
140
12.0
141
12.0
290
     0
  0
ENDSEC
  0
EOF
